Date: Sun, 10 Mar 1996 13:55:05 -0600
From: [email protected] (Sigurdson)
Song: Redemtion song
Artist: No Use For A Name
Album: !Leche con Carne!
Tabbed by: Eric Sigurdson
This is my First time tabbing something, I hope that it makes sense...
I think this is a Cover of a Bob Marley song.
Opening: Clean (no distortion)
D---------------2-----0----------------------------
A----0--2----3-----------0-2----0--2/5--3-2-0------
E--3------3-------3----------3----------------3----
D---------------2-----0------------------------5---
A----0--2----3-----------0-2----0--2/5--3-2-0--5---
E--3------3-------3----------3-----------------3*--
*can play power chord or:
e--3--
B--0--
G--0-- (i think this one sounds better)
D--0--
A--2--
E--3--
Verse: (faster with distortion)
G E C B A G E C B D
e----------------------------------
B----------------------------------
G-----1--5--5--2-------1--5--5--7--
D--5--2--5--5--2----5--2--5--5--7--
A--5--2--3--2--0----5--2--3--2--5--
E--3--0-------------3--0-----------
(play this twice)
Chorus:
G C D G C D E C D G C D
e-------------------------------------------
B-------------------------------------------
G-----5--7------5--7------5--7------5--7----
D--5--5--7---5--5--7---2--5--7---5--5--7----
A--5--3--5---5--3--5---2--3--5---5--3--5----
E--3---------3---------0---------3----------
Thing After Chorus:
E-C-D
E-C-D
E-C-D
E-C-D(stop, Go back to Verse)
Thing After Last Chorus:
E-C
E-C-C
E-C-B-A-G
E-C-D(end)
Listen to the Song, It'll make this easier to understand.
I don't Know the Lyrics, If someone Knows them then please
E-mail me them.
Any Questions or comments.....E-mail me at [email protected]




Ваше мнение



Капча