No Use For A Name - Redmption Song
submitted by Ieshu Vicente ([email protected])
this song is so easy, I listened to it once and figured it out...
INTRO
E--------------------------------------------------------
B--------------------------------------------------------
G--------------------------------------------------------
D----------2-0-------------0-----------------------------
A--0-2----3----0-h-2---0-2----3-2-0----------------------
E-3---3---------------3-------------3--------------------
E-------------------------------------3-------------------
B-------------------------------------0-------------------
G-------------------------------------0-------------------
D----------2-0-------------0----------0-------------------
A--0-2----3----0-h-2---0-2----3-2-0---2-------------------
E-3---3---------------3---------------3-------------------
VERSE 1
E--------------------------------------------------------
B--------------------------------------------------------
G-------5--4----------------5--4--7----------------------
D-5--2--5--4--7------3--2---5--4--7----------------------
A-5--2--3--2--7------5--2---3--2--5----------------------
E-3--0--------5------3--0--------------------------------
X3
VERSE 2
E--------------------------------------------------------
B--------------------------------------------------------
G----5--7--------5--7-------5--7-------------------------
D-5--5--7-----2--5--7----5--5--7-------------------------
A-5--3--5-----2--3--5----5--3--5-------------------------
E-3-----------0----------3-------------------------------
X2 X2
VERSE 1
E--------------------------------------------------------
B--------------------------------------------------------
G-------5--4---------------5--4--7-----------------------
D-5--2--5--4--7------3--2--5--4--7----------------------- REPEAT X2
A-5--2--3--2--7------5--2--3--2--5-----------------------
E-3--0--------5------3--0--------------------------------
VERSE 2
E--------------------------------------------------------
B--------------------------------------------------------
G----5--7--------5--7---------5--7-----------------------
D-5--5--7-----2--5--7------5--5--7-----------------------
A-5--3--5-----2--3--5------5--3--5-----------------------
E-3-----------0------------3-----------------------------
X2 X2
BRIDGE
E--------------------------------------------------------
B--------------------------------------------------------
G----5--7------------------------------------------------
D-2--5--7------------------------------------------------
A-2--3--5------------------------------------------------
E-0------------------------------------------------------
X4
VERSE 1
E--------------------------------------------------------
B--------------------------------------------------------
G-------5---4----------------5--4--7---------------------
D-5--2--5---4---7------3--2--5--4--7--------------------- REPEAT X2
A-5--2--3---2---7------5--2--3--2--5---------------------
E-3--0----------5------3--0------------------------------
VERSE 2
E--------------------------------------------------------
B--------------------------------------------------------
G----5--7-------5--7--------5--7-------------------------
D-5--5--7----2--5--7-----5--5--7------------------------- REPEAT X2
A-5--3--5----2--3--5-----5--3--5-------------------------
E-3----------0-----------3-------------------------------
X2 X2
ENDING
E--------------------------------------------------------
B--------------------------------------------------------
G-----5---------5--4----------------5--7-----------------
D--2--5------2--5--4--5--7--2----2--5--7-----------------
A--2--3------2--3--2--5--7--2----2--3--5-----------------
E--0--------0--------3--5--0----0------------------------
That's it.....this is the first time i ever tabbed anything,
so i dont know if it's 100% right, but you can figure it out...
===========
#------------Created with Taborama Tab Creator-----------------#
#------------------------------------------------------------------------------#
Title: Redemption Song
Artist: No Use For A Name
Album: Leche Con Carne
Instrument: Acoustic Guitar
Tabbed by: Gonzalo Roca ([email protected]) Leo Feres ([email protected])

Tuning: Standard (E A D G B E)
Please, people!!!, send N.U.F.A.N. Tabs!!!!!!
Is a Very Good Band.
Intro:
Plays This Two Times
E|--------------------------------------------------||
B|--------------------------------------------------||
G|--------------------------------------------------||
D|--------------------------------------------------||
A|-----2---2-35/3-------25/-3-2-------------------||
E|-3-5---5---------5-3-5----------5-3---------------||
Then at the finish play a D chord
E|-----------------------------------3---------------||
B|-----------------------------------3---------------||
G|-----------------------------------0---------------||
D|-----------------------------------0---------------||
A|-----2---2-35/3-------25/-3-2----2---------------||
E|-3-5---5---------5-3-5----------5--3---------------||
That's it.
Any corrections or comments email me at [email protected] or [email protected]




Ваше мнение



Капча