------------------------------------------------------------------
ON THE OUTSIDE - No Use For A Name
------------------------------------------------------------------

By: Dave Wilson ([email protected] for requests)

Intro (x2Ѕ)
G|---------------------------------------------------------------|
D|---------------------------------------------------------------|
A|------------------2-2-2-2--7-7-7-7-----------------------------|
E|3-3-3-3--2-2-2-2-----------------------------------------------|

Verse
G|---------------------------------------------------------------|
D|---------------------------------------------------------------|
A|5-5-5-5-----------------------------------------5-5-5-5-5-5-5-5|
E|-------5-5-5-5--2-2-2-2-2-2-2-2--3-3-3-3-3-3-3-3---------------|

G|---------------------------------------------------------------|
D|---------------------------------------------------------------|
A|---------------------------------5-5-5-5-5-5-5-5---------------|
E|5-5-5-5-5-5-5-5--3-3-3-3-3-3-3-3----------------5-5-5-5-5-5-5-5|

G|---------------------------------------------------------------|
D|---------------------------------------------------------------|
A|---------5-5-5-5-----------------------------------------------|
E|3-3-3-3-----------2-2-2-2-2-2-2-2------------------------------|
Intro (x1Ѕ)

Solo With Drums
G|---------------------------------------------------------------|
D|---------------------------------------------------------------|
A|2-2-2-2--------------------------------------------------------|
E|---------3-3-3-3--0-0-0-0--2-2-2-2-----------------------------|
Verse

Verse 2
G|---------------------------------------------------------------|
D|---------------------------------------------------------------|
A|---------5-5-5-5-----------------------------5-5-5-5-----------|
E|3-3-3-3-----------5-5-5-5--2-2-2-2--3-3-3-3-----------5-5-5-6--|

G|---------------------------------------------------------------|
D|---------------------------------------------------------------|
A|---------------------------------------------------------------|
E|7-7-7-7--5-5-5-5--3--3-----------------------------------------|
Verse
Intro (x8) Fade out




Ваше мнение



Капча