NEW YORK FAIRY TALE (Solos) - No Use For a Name
-------------------------------------------------------------------------------

Solo 1
e|-7-7b9r7-4---4-7-7b9r7------------------------------|
b|-----------5-----------7-5-7-7b8-7-5-----------4-5--|
g|-------------------------------------6---6-4-6------|
d|---------------------------------------7------------|
a|----------------------------------------------------|
e|----------------------------------------------------|

Solo 2
e|-----4-----------------7-7b9r7-4-----4-5-7----|
b|-5-7---7-5-7-7b8r7-5-------------5-7-------7--|
g|---------------------6------------------------|
d|----------------------------------------------|
a|----------------------------------------------|
e|----------------------------------------------|

e|-7-7b9r7-4---------------------7-4--------------|
b|-----------5-7-7b8-7-5-------5-----5-7-7b8r7-5--|
g|-----------------------6-4-6--------------------|
d|------------------------------------------------|
a|------------------------------------------------|
e|------------------------------------------------|

Solo 3
e|--------------------------------------|
b|---5-4-4------4-5---------------------|
g|-6-------66-6-----4------4------------|
d|--------------------66-6---6-4--------|
a|-------------------------------77-66--|
e|--------------------------------------|

Solo 4
e|--------------------------|
b|--------------------------|
g|-------4-6-4--------------|
d|-7-7-7-------7-6\4---4-6--|
a|-------------------7------|
e|--------------------------|




Ваше мнение



Капча