e---------------------------------------------------
B---------------------------------------------------
G---------------------------------------------------
D------8-8-7-7-5-5-----8-8-7-7-5-5------------------
A--5-5-------------5-5------------------------------
E---------------------------------------------------

e---------------------------------------------------
B---------------------------------------------------
G---------------------------------------------------
D------7-7-5-5-3-3-2-2-3-3-5-5-3-3------------------
A--3-3----------------------------------------------
E---------------------------------------------------

Play that 3 times.. After the first time the Rhythem comes in,
and is playing this...

1,2,3,4 1,2,3,4 1,2,3,4 1,2,3,4
e---------------------------------------------------
B--7-----------------------5------------------------
G--7-------7-------2-------5------------------------
D--7-------8-------3-------5------------------------
A--5-------8-------3-------3------------------------
E----------6-------1--------------------------------

Play those chords during the last 2 measures of the lead...
There ya go, enuf to get ya started.. NUFAN Rules.. and this
song isn't that hard... The other guy had the lead way off on
tone.. I'm pretty sure this is right if not, I'm gonna look stupid!! Later on..

-Mike!




Ваше мнение



Капча