Band: No Use For A Name
Album: Leche Con Carne
Song: Justified Black Eye
Tabbed by: John Mercer
Email: [email protected]
Timing is off on all parts, mainly on parts where there's vocals
Listein to the CD for it, it's easy to get!
Intro A (play two times)
Gtr 1
e-------------------------------------------------|
B-------------------------------------------------|
G-4/----------9/----------7/----------11/---------|
D-------------------------------------------------|
A-2/----------7/----------5/----------9/----------|
E-------------------------------------------------|
|
|
Gtr 2 |
e-------------------------------------------------|
B-------------------------------------------------|
G-------------------------------------------------|
D-------------5--5--5--5--------------7--7--7--7--|
A-2--2--2--2--3--3--3--3--5--5--5--5--5--5--5--5--|
E-0--0--0--0--------------3--3--3--3--------------|

Intro B (play two times)
Gtr 1
e----------------------------------------------------------------------|
B----------------------------------------------------------------------|
G----------------------------------------------------------------------|
D----------------------------------------------------------------------|
A-7-7-7-7-9-9-10----------7-7-10--9-9-9-9-10-10-12--------------9-10-9-|
E-----------------8-8-8-8---------------------------10-10-10-10--------|
|
|
Gtr 2 |
e----------------------------------------------------------------------|
B----------------------------------------------------------------------|
G----------------------------------------------------------------------|
D-----------------5--5--5--5------------------------7--7--7--7---------|
A-2--2--2--2------3--3--3--3------5--5--5--5--------5--5--5--5---------|
E-0--0--0--0----------------------3--3--3--3---------------------------|

Intro C (both guitar's)
Play four times, palm mute the D on the third time
E G A C B C D
e-------------------------------------|
B-------------------------------------|
G-------------------------------------|
D-9--9--------------------------------|
A-7--7--2--2--5--7--10-9--10--12--12--|
E-------0--0--3--5--8--7--8---10--10--|

Verse(both guitar's)
E C G D
She was confused and abused in this life

Pm--------------------------------------------
e-------------------------------------------------|
B-------------------------------------------------|
G-------------------------------------------------|
D-------------5--5--5--5--------------7--7--7--7--|
A-2--2--2--2--3--3--3--3--5--5--5--5--5--5--5--5--|
E-0--0--0--0--------------3--3--3--3--------------|
E C G D
Emotional and violent moments seemed to take the longest time
Pm--------------------------------------------
e--------------------------------------------------------------|
B--------------------------------------------------------------|
G--------------------------------------------------------------|
D-------------5--5--5--5--------------7--7--7--7---------------|
A-2--2--2--2--3--3--3--3--5--5--5--5--5--5--5--5---------------|
E-0--0--0--0--------------3--3--3--3---------------------------|
E C G D
Every single night i tried to find the other half apologies and dignity denied
e-------------------------------------------------------------------------------|
B-------------------------------------------------------------------------------|
G-------------------------------------------------------------------------------|
D-------------5--5--5--5--------------7--7--7--7--------------------------------|
A-2--2--2--2--3--3--3--3--5--5--5--5--5--5--5--5--------------------------------|
E-0--0--0--0--------------3--3--3--3--------------------------------------------|
E C G D
He starts to laugh, he starts to lie with suddenly psychotic eyes
e------------------------------------------------------------------|
B------------------------------------------------------------------|
G------------------------------------------------------------------|
D-------------5--5--5--5--------------7--7--7--7-------------------|
A-2--2--2--2--3--3--3--3--5--5--5--5--5--5--5--5-------------------|
E-0--0--0--0--------------3--3--3--3-------------------------------|

Chorus
C D E B
Every night she cried herself to sleep she didn't recognize
e------------------------------------------------------------|
B------------------------------------------------------------|
G------------------------------------------------------------|
D-5--5--5--5--7--7--7--7--------------4--4--4--4-------------|
A-3--3--3--3--5--5--5--5--2--2--2--2--2--2--2--2-------------|
E-------------------------0--0--0--0-------------------------|
C D E D
her own face in the mirror all black & blue
e-------------------------------------------------------|
B-------------------------------------------------------|
G-------------------------9--9--9--9--9--9--9--9--9--7--|
D-5--5--5--5--7--7--7--7--9--9--9--9--9--9--9--9--------|
A-3--3--3--3--5--5--5--5--7--7--7--7--7--7--7--7--7--5--|
E-------------------------------------------------------|
C D E B
So afraid intimidation like a child she hides away He

e------------------------------------------------------------|
B------------------------------------------------------------|
G------------------------------------------------------------|
D-5--5--5--5--7--7--7--7--------------4--4--4--4-------------|
A-3--3--3--3--5--5--5--5--2--2--2--2--2--2--2--2-------------|
E-------------------------0--0--0--0-------------------------|
C D
would always try to justify what wasn't true
e---------------------------------------------|
B---------------------------------------------|
G---------------------------------------------|
D-5--5--5--5--7--7--7--7----------------------|
A-3--3--3--3--5--5--5--5----------------------|
E---------------------------------------------|
Then play Intro C
Play four times, palm mute the D on the third time
E G A C B C D
Justifed Black Eye
e-------------------------------------|
B-------------------------------------|
G-------------------------------------|
D-9--9--------------------------------|
A-7--7--2--2--5--7--10-9--10--12--12--|
E-------0--0--3--5--8--7--8---10--10--|

2nd Verse

E C G D
Taken for granted she sleeps by the phone

Pm--------------------------------------------
e-------------------------------------------------|
B-------------------------------------------------|
G-------------------------------------------------|
D-------------5--5--5--5--------------7--7--7--7--|
A-2--2--2--2--3--3--3--3--5--5--5--5--5--5--5--5--|
E-0--0--0--0--------------3--3--3--3--------------|
E C G D
Waiting for a call from him but it seems he's never coming home
Pm--------------------------------------------
e----------------------------------------------------------------|
B----------------------------------------------------------------|
G----------------------------------------------------------------|
D-------------5--5--5--5--------------7--7--7--7-----------------|
A-2--2--2--2--3--3--3--3--5--5--5--5--5--5--5--5-----------------|
E-0--0--0--0--------------3--3--3--3-----------------------------|
E C G D
14 beers later he is there without an answer
e---------------------------------------------------|
B---------------------------------------------------|
G---------------------------------------------------|
D-------------5--5--5--5--------------7--7--7--7----|
A-2--2--2--2--3--3--3--3--5--5--5--5--5--5--5--5----|
E-0--0--0--0--------------3--3--3--3----------------|
E C G D
Once again she questions his lies she goes to bed with no reply
e------------------------------------------------------------------|
B------------------------------------------------------------------|
G------------------------------------------------------------------|
D-------------5--5--5--5--------------7--7--7--7-------------------|
A-2--2--2--2--3--3--3--3--5--5--5--5--5--5--5--5-------------------|
E-0--0--0--0--------------3--3--3--3-------------------------------|

2nd Chorus
C D E B
Tomorrow morning different story and he'll be a different guy
e--------------------------------------------------------------|
B--------------------------------------------------------------|
G--------------------------------------------------------------|
D-5-----------7-----------------------4--4--4--4---------------|
A-3-----------5-----------2--2--2--2--2--2--2--2---------------|
E-------------------------0--0--0--0---------------------------|
C D E D
He'll justify her black eye with another lie.
e-------------------------------------------------------|
B-------------------------------------------------------|
G-------------------------9--9--9--9--9--9--9--9--9--7--|
D-5--5--5--5--7--7--7--7--9--9--9--9--9--9--9--9--------|
A-3--3--3--3--5--5--5--5--7--7--7--7--7--7--7--7--7--5--|
E-------------------------------------------------------|
C D E B
She packs her bags in great temptation he's on his knees again he cries

e------------------------------------------------------------------------|
B------------------------------------------------------------------------|
G------------------------------------------------------------------------|
D-5--5--5--5--7--7--7--7--------------4--4--4--4-------------------------|
A-3--3--3--3--5--5--5--5--2--2--2--2--2--2--2--2-------------------------|
E-------------------------0--0--0--0-------------------------------------|
C D E D
A hug & a kiss and I don't know why as a tear drops from her swollen eye
e--------------------------------------------------------------------------|
B--------------------------------------------------------------------------|
G-------------------------9--9--9--9--9--9--9--9--9--7---------------------|
D-5--5--5--5--7--7--7--7--9--9--9--9--9--9--9--9---------------------------|
A-3--3--3--3--5--5--5--5--7--7--7--7--7--7--7--7--7--5---------------------|
E--------------------------------------------------------------------------|

Bridge
B C B C D
Apologies until tonight and it's another justified black eye
e-------------------------------------------------------------|
B-------------------------------------------------------------|
G-------------------------------------------------------------|
D-4--4--4--4--4--5--4--4--4--4--4--5--7-----------------------|
A-2--2--2--2--2--3--2--2--2--2--2--3--5-----------------------|
E-------------------------------------------------------------|

Then play Intro C
Play four times, palm mute the D on the third time
E G A C B C D
Justifed Black Eye
e-------------------------------------|
B-------------------------------------|
G-------------------------------------|
D-9--9--------------------------------|
A-7--7--2--2--5--7--10-9--10--12--12--|
E-------0--0--3--5--8--7--8---10--10--|




Ваше мнение



Капча