No use for a Name
International You Day
Hard Rock Bottom
Tabbed by: Justin Baillargeron ([email protected])
Intro
|-------|------|------|------|
|-------|------|------|------|
|-----8x|----8x|----8x|----8x| 2nd time, just play full power chords
|-------|------|---8--|------|
|---10--|---6--|-6----|---8--|
|-8-----|-4----|------|-6----|
guitar 1, rhythm

|----------------------------------------------------------------------|
|----------------------------------------------------------------------|
|-8--7--8--7--10/8--5--3--5--12--10--12--10--13/12--7--8--10-------2x--|
|----------------------------------------------------------------------|
|-6--5--6--5---8/6--3--1--3--10---8--10---8--11/10--5--6---8-----------|
|----------------------------------------------------------------------|
guitar 2, lead

Verse 1 2nd time
|-------|------|------|------|------|-----|
|-------|------|------|------|------|-----|
|-----6x|----2x|----8x|----8x|----8x|-----|
|-------|------|------|---8--|------|-----|
|---10--|---8--|---6--|-6----|---8--|-5---|
|-8-----|-6----|-4----|------|-6----|-3---|
guitar 1 palm mute all

2nd time only
|-------|-------|------|------|-------|
|-----6x|-----2x|----8x|----4x|-------|
|---12--|---10--|---8--|---8--|-------|
|-10----|-8-----|-6----|-5----|-------|
|-------|-------|------|------|-5-----|
|-------|-------|------|------|-3-----|
guitar 2

pre-chorus
|-----|-----|-----|-----|----|-----|
|-----|-----|-----|-----|----|-----|
|---8x|---8x|---8x|---4x|--4x|--12x|
|-----|-----|-----|-----|----|-----|
|--6--|-8---|-5---|-10--|-8--|-6---|
|--4--|-6---|-3---|-8---|-6--|-4---|
guitar 1

|--------------|-------------------|----------|
|--------------|-------------------|----------|
|-13--12--8--7-|--15--13--12--8--7-|----------|
|--------------|-------------------|-10--9----|
|-11--10--6--5-|--13--11--10--6--5-|----------|
|--------------|-------------------|-8---7----|
guitar 2

Chorus 1st 2nd
|-----|------|-----|-----|-----|-----|
|-----|------|-----|-----|-----|-----|
|---8x|----8x|---8x|---4x|---4x|---4x|
|-8---|------|-----|-----|-----|-----|
|-6---|-10---|-8---|-6---|-6---|-8---|
|-----|-8----|-6---|-4---|-3---|-6---|

Intro again

verse 2 2nd time
|-----|----|----|----|----|-----|
|-----|----|----|----|----|-----|
|---6x|--2x|--8x|--8x|--8x|-----|
|-----|----|----|-8--|----|-----|
|-10--|-8--|-6--|-6--|-8--|-5---|
|-8---|-6--|-4--|----|-6--|-3---|
guitar 1

fill
|-----|
|-----|
|-7---| use at the end of the first repetion
|-----|
|-5---|
|-----|

outro chorus 1st time 2nd time
|-----|-----|-----|-----|-----|-----|-------|----|
|---8x|---8x|---8x|---4x|---4x|---4x|-----4x|----|
|-8---|-7---|-3---|-5---|-3---|-----|-------|----|
|-----|-----|-----|-----|-----|-----|-------|-8--|
|-6---|-5---|-1---|-3---|-1---|-6---|-8-----|-6--|
|-----|-----|-----|-----|-----|-4---|-6-----|----|

This is 100% accurate, and warlock225's version is the same one, since I taught how to
play the damn song in our band, and the part's he didn't tab out are the parts I play.
YOU BASTARD JUA


Ваше мнение



Капча