Song: Growing Down
Band: No Use For A Name
Album: Making Friends
tabbed by: Oly

* = play about 8 times
** = play about 16 times

INTRO

G:---------------------------------------------------------------
D:--------------00-----------------------------------------------
A:-----------------33-22-00--------------------------------------
E:--3**-0**-3**--------------------------------------------------

VERSE

G:---------------------------------------------------------------
D:--------------0**----------------------------------------------
A:----------3**-------------3*-4*-5*-6*--------------------------
E:--3**-0**---------3**-0**--------------------------------------

CHORUS

G:---------------------------------------------------------------
D:--2**-0**---------2**-0**---------0**--------------------------
A:----------3**-------------3**---------3*-1*--------------------
E:--------------3**-------------3**------------------------------

VERSE 2 - same as first
2nd CHORUS - same as first
BRIDGE - geetar first, then:
she's sinking to the bottom and he can't feel her pain
G:---------------------------------------------------------------
D:------------1*-------------0*----------------------------------
A:---------------------------------------------------------------
E:-----------------------------------------3*------------4*------

too late cause the seeds were sown
G:---------------------------------------------------------------
D:-----1*------------------0*------------------------------------
A:---------------------------------------------------------------
E:------------------------------------3*-------------------------

3rd CHORUS - same as first two
OUTRO

G:---------------------------------------------------------------
D:--------------0**-------------00-------------------------------
A:---------------------------------33-22-00----------------------
E:--3**-0**-3**-----3**-0**-3**--------------3-------------------




Ваше мнение



Капча