No Use For A Name
Friends of the Enemy
Hard Rock Bottom
Tabbed by: Justin Baillargeron

Intro
|-------------|----------------------------------------------|
|-------------|----------------------------------------------|
|-5--4--4--5--|-5--4--4--/9---4-----------------------------|
|-------------|----------------------------------------------|
|-------------|----------------------------------------------|
|-------------|----------------------------------------------|
guitar 1
|-------------|----------------------------------------------|
|-------------|----------------------------------------------|
|-------------|----------/9----4----------------------------|
|----------5--|----------------------------------------------|
|-3--2--7--3--|-3--2--7--/7----2----------------------------|
|-1--3--5-----|-1--3--5--------------------------------------|
guitar 2/ light overdrive

Verse 1 End play with chorus
|-------------|-------------|-------|-----------|------------|
|-------------|-------------|-------|-----------|------------|
|-------------|-------------|-------|-10--9--7--|-5----------|
|----------5--|-------------|-------|-----------|------------|
|-3--2--7--3--|-3--2--7--5--|-5--3--|-8---7--5--|-3----------|
|-1--3--5-----|-1--3--5--3--|-3--1--|-----------|------------|
Listen for rhythm I don't think so...
Lost in confusion...

Chorus
|-------------|--------------|-------------------------------|
|-------------|--------------|-------------------------------|
|-5-----------|-10--9--7--5--|-5--------7--------------------|
|-5--5--7--3--|--------------|-5--5--7--7--3--5--------------|
|-3--5--7--3--|-8---7--5--3--|-3--5--7--5--3--5--------------|
|----3--5--1--|--------------|----3--5-----1--3--------------|
What would... C over laps into next riff

Verse 2 End
|-------------|-------------|-------|------------------------|
|-------------|-------------|-------|------------------------|
|-------------|-------------|-------|-12---------------------|
|----------5--|-------------|-------|------------------------|
|-3--2--7--3--|-3--2--7--5--|-5--3--|-10---------------------|
|-1--3--5-----|-1--3--5--3--|-3--1--|------------------------|

Bridge 1
|-------------------------------------------------------------|
|-------------------------------------------------------------|
|--------------------------5-5-5-5--5-5-5-5--5-5-5------------|
|-3-3-3-3--3-3-3-3--3-3-3--5-5-5-5--5-5-5-5--5-5-5------------|
|-3-3-3-3--3-3-3-3--3-3-3--3-3-3-3--3-3-3-3--3-3-3------------|
|-1-1-1-1--1-1-1-1--1-1-1-------------------------------------|
Guitar 1 (palm mute)

|-------------------------------------------------------------|
|-------------------------------------------------------------|
|-------------------------------------------------------------|
|--------------------------5-5-5-5--5-5-5-5--3-3-3------------|
|-3-3-3-3--3-3-3-3--2-2-2-------------------------------------|
|-------------------------------------------------------------|
Guitar 2 (palm mute)

|------------------------------------------------------------|
|------------------------------------------------------------|
|------------------------------------------------------------|
|-3-3-3-3--3-3-3-3--3-3-3--7-7-7-7--5-5-5-5--5-5-5-----------|
|-3-3-3-3--3-3-3-3--3-3-3--7-7-7-7--5-5-5-5--5-5-5-----------|
|-1-1-1-1--1-1-1-1--1-1-1--5-5-5-5--3-3-3-3--3-3-3-----------|
Guitar 1

|-------------------------------------------------------------|
|-------------------------------------------------------------|
|-------------------------------------------------------------|
|-7-7-7-7--7-7-7-7--5-5-3--2-2-2-2----------------------------|
|-----------------------------------2-2-2-2--2-2-2------------|
|-------------------------------------------------------------|
Guitar 2

Bridge 2
|-------------------------------------------------------------|
|-------------------------------------------------------------|
|--------------------------5-5-5-5--5-5-5-5--5-5-5------------|
|-3-3-3-3--3-3-3-3--3-3-3--5-5-5-5--5-5-5-5--3-3-3------------|
|-3-3-3-3--3-3-3-3--2-2-2--3-3-3-3--3-3-3-3--3-3-3------------|
|-1-1-1-1--1-1-1-1--1-1-1-------------------------------------|
Guitar 1 (no palm mute)


|-------------------------------------------------------------|
|--------------------------8-8-8-8--8-8-8-8--6-6-6------------|
|-5-5-5-5--5-5-5-5--4-4-4-------------------------------------|
|--------------------------5-5-5-5--5-5-5-5--3-3-3------------|
|-3-3-3-3--3-3-3-3--2-2-2-------------------------------------|
|-------------------------------------------------------------|
Guitar 2 (no palm mute)

|------------------------------------------------------------|
|------------------------------------------------------------|
|------------------------------------------------------------|
|-3-3-3-3--3-3-3-3--3-3-3--7-7-7-7--5-5-5-5--5-5-5-----------|
|-3-3-3-3--3-3-3-3--3-3-3--7-7-7-7--5-5-5-5--5-5-5-----------|
|-1-1-1-1--1-1-1-1--1-1-1--5-5-5-5--3-3-3-3--3-3-3-----------|
Guitar 1

|-------------------------------------------------------------|
|-10-10-10-10--10-10-10-10--8-8-6--5-5-5-5--------------------|
|-------------------------------------------4-4-4-4--4-4-4----|
|-7--7--7--7---7--7--7--7---5-5-3--2-2-2-2--------------------|
|-------------------------------------------2-2-2-2--2-2-2----|
|-------------------------------------------------------------|
Guitar 2

Bridge 3
|-----|-----|--------------------------------------------------|
|-----|-----|--------------------------------------------------|
|-----|-----|--------------------------------------------------|
|-----|-----|--------------------------------------------------|
|--3--|--5--|-5-----------------------------------------------|
|--1--|--3--|-3-----------------------------------------------|
14x 8x 1x
Your imitating.....

Last Chorus
|-------------|--------------|--------------------|
|-------------|--------------|--------------------|
|-5-----------|-10--9--7--5--|-5------------------|
|-5--5--7--3--|--------------|-5--5--7--3---------|
|-3--5--7--3--|-8---7--5--3--|-3--5--7--3---------|
|----3--5--1--|--------------|----3--5--1---------|
Its when that you can't....

|-------------|--------------|--------------------|
|-------------|--------------|--------------------|
|-5-----------|-10--9--7--5--|-5------------------|
|-5--5--7--3--|--------------|-5--5--7--3---------|
|-3--5--7--3--|-8---7--5--3--|-3--5--7--3---------|
|----3--5--1--|--------------|----3--5--1---------|
Don't understand...
Last time
|-------------|
|-------------|
|-5-----------|
|-5--5--7--3--|
|-3--5--7--3--|
|----3--5--1--|
zone.....
Guitar 1

|-------------|
|-------------|
|-5--7--------|
|-------7--3--|
|-3--5--7--3--|
|-------5--1--|
Guitar 2

The only part I'm not sure about is guitar 2 on the last time through the
chorus, the rest seems to be perfect.




Ваше мнение



Капча