No Use For A Name
Album: Leche Con Carne
Tabbed by Zack Hite

* = play 8 times
Intro.

G-----------------------------------------------------------------------
D----------------------------------------------------------------------
A----0*---2*---0*--3333--2222---0*---2*---0*---3--2--0------------------
E--------------------------------------------------------------------3-

Verse

G------------------------------------------------------------------
D------------------------------------------------------------------
A----5*---3*---2*---1111--0000------------------------------------
E------------------------------------------------------------------ Repeat x4


G----------------------------------------------------------------
D----------------------------------------------------------------
A----3*3*---5*5*---5555--11-00-----------------------------------
E----------------------------------------------------------------

Verse x6

When you come to the second part of the verse play this

G----------------------------------------------------------------
D----------------------------------------------------------------
A----3*3*---5*5*--2-------3*3*---5*5*----------------------------
E----------------------5--3--------------------------------------

Verse x4
2nd part x2




Ваше мнение



Капча