This is 100% correct I have played along with the CD over and over again evrything goes
with the CD.
(1ST SOLO)(0:46)
e-8-10-8--------8-10-8--------------------------------------
B--------10-6-8--------8-6-8-10-8-6-------------------------
G-----------------------------------7-7-5-7-9-10------------
D------------------------------------8----------------------
A-----------------------------------------------------------
E-----------------------------------------------------------
(2ND SoLo) (1:44)
e-----------------------8-10-8-------------------8-10-8-----
B-6-8-10-8-6-8-10-8-6----------10-6-8-10-11-14-8------------
G---------------------7-------------------------------------
D-----------------------------------------------------------
A-----------------------------------------------------------
E-----------------------------------------------------------
(2ND SOLO) (CONTINUED)
e----------------------5-8----------------------------------
B-10-6-8-10-8-6-----6------10-6-8-10-8-6--------------------
G---------------7-5-----------------------------------------
D-----------------------------------------------------------
A-----------------------------------------------------------
E-----------------------------------------------------------
(3RD SOLO) (2:32)
e-----------------------------------------------------------
B---6-5-5-3-3--3-5-6----------------------------------------
G-5------------------5-2-2---3-2----------------------------
D--------------------------3-----5-3-2----------------------
A-----------------------------------------------------------
E-----------------------------------------------------------
THAT'S IT! IT'S REALLY NOT AS HARD AS IT SOUNDS. HAVE FUN.




Ваше мнение



Капча