#----------------------------------PLEASE NOTE---------------------------------#
#This file is the author's own work and represents their interpretation of the #
#song. You may only use this file for private study, scholarship, or research. #
#------------------------------------------------------------------------------##
Date: Mon, 14 Aug 1995 21:44:08 -0600 (MDT)
From: Jeff Mutt
Subject: couch boy...by NO USE FOR A NAME
COUCH BOY
intro:
e-|-----------------------------------------|
B-|-3-x-3-x-3-----------3-x-3-x-3-4-x-4-x-4-|
G-|-2-x-2-x-2-3-x-3-x-3-2-x-2-x-2-3-x-3-x-3-|
D-|-0-x-0-x-0-3-x-3-x-3-0-x-0-x-0-1-x-1-x-1-|repeat once
A-|-----------1-x-1-x-1---------------------|
E-|-----------------------------------------|
e-|----------------------------------------------------------------------|
B-|-3-x-3-x-3-4-x-4-x-4-7-7-7-9-9-9-10-10-10-5-5-5-7-7-7-7-7-7-6-6-6-6-6-|
G-|-2-x-2-x-2-3-x-3-x-3--------------------------------------------------|
D-|-0-x-0-x-0-1-x-1-x-1--------------------------------------------------|
A-|----------------------------------------------------------------------|
E-|----------------------------------------------------------------------|
e-|------------------------------------------------------------------|
B-|-7-7-7-9-9-9-10-10-10-5-5-5-7-7-7-7-7-7-6-6-6-6-6-----------------|
G-|--------------------------------------------------6-7-6-4-6-4-----|
D-|--------------------------------------------------------------7-6-|
A-|------------------------------------------------------------------|
E-|------------------------------------------------------------------|
verse:
e-|------------------------------------------------------------------|
B-|------------------------------------------------------------------|
G-|-----------------4-4-4-4-7-7-7-7-----------------4-4-4-4-7-7-7-7--|
D-|-4-4-4-4-7-7-7-7-4-4-4-4-7-7-7-7-4-4-4-4-7-7-7-7-4-4-4-4-7-7-7-7--|
A-|-4-4-4-4-7-7-7-7-2-2-2-2-5-5-5-5-4-4-4-4-7-7-7-7-2-2-2-2-5-5-5-5--|
E-|-2-2-2-2-5-5-5-5-----------------2-2-2-2-5-5-5-5------------------|
e-|------------------------------------------------------------------|
B-|------------------------------------------------------------------|
G-|-----------------4-4-4-4-7-7-7-7-----------------4-4-4-4-7-7-7-7--|
D-|-4-4-4-4-7-7-7-7-4-4-4-4-7-7-7-7-4-4-4-4-7-7-7-7-4-4-4-4-7-7-7-7--|
A-|-4-4-4-4-7-7-7-7-2-2-2-2-5-5-5-5-4-4-4-4-7-7-7-7-2-2-2-2-5-5-5-5--|
E-|-2-2-2-2-5-5-5-5-----------------2-2-2-2-5-5-5-5------------------|
e-|---------------------------------|
B-|---------------------------------|
G-|-6-6-6-6-6-6-6-6-6-6-6-6-6-6-6-6-|
D-|-6-6-6-6-6-6-6-6-6-6-6-6-6-6-6-6-|
A-|-4-4-4-4-4-4-4-4-4-4-4-4-4-4-4-4-|
E-|---------------------------------|
i didn't tab the rythym out quite right but I figure anyone whos
downloading this will have the cd anyway and can figure out the rythym
themselves...
Chorus:
e-|----------------------------------------------------------------------|
B-|----------------------------------------------------------------------|
G-|---------------------------------------7-7-7-7-7-6-6-6-6-6-6-4-4-4-4--|
D-|-4-x-x-4-x-4-x-x-4-7-x-x-7-x-x-7-x-x-7-7-7-7-7-7-6-6-6-6-6-6-4-4-4-4--|
A-|-4-x-x-4-x-4-x-x-4-7-x-x-7-x-x-7-x-x-7-5-5-5-5-5-4-4-4-4-4-4-2-2-2-2--|
E-|-2-x-x-2-x-2-x-x-2-5-x-x-5-x-x-5-x-x-5--------------------------------|
once again the rythym isn't tabbed right... just listen to the cd
I don't know the outro... but hey... I'll end up figuring it out one day
and sending it
transcribed by Rambozo
[email protected]




Ваше мнение



Капча