#----------------------------------PLEASE NOTE---------------------------------#
#This file is the author's own work and represents their interpretation of the-#
#song. You may only use this file for private study, scholarship, or research.-#
#------------------------------------------------------------------------------#
No Doubt - You Can Do It
Submitted By: Anjel
EMail: [email protected]
Transcribed by Curtis Pastor
Dec 18 1996
Standard Tuning
Use Wah pedal throughout
Verse
||---------------------------------------------------|
||---------------------------------------------------|
||---5/8--8--8-----5--5--5--5/8--8--8----------------|
||-------------------------------------------5--5h8--|
||---------------------------------------------------|
||---------------------------------------------------|
----------------------------------------||
----------------------------------------||
----------------------------------------||
5-----------5--5--5/8--8--8--85-----0--||
----------------------------------------||
----------------------------------------||
----------------------------------------|
----------------------------------------|
5/8--8--8-----5--5--5--5h8--------------|
----------------------------------------|
----------------------------------------|
----------------------------------------|

Chorus:
---0-----0-----0-----0-----|
---6-----6-----6-----6-----|
---------------------------|
---------------------------|
---------------------------|
---------------------------|
-----------------------------------|--0-----0-----0-----0-----|
6--8-----9-----8--6---/9-----8-----|--6-----6-----6-----6-----|
-----------------------------------|--------------------------|
-----------------------------------|--------------------------|
-----------------------------------|--------------------------|
-----------------------------------|--------------------------|
-----------------------------------|--0-----0-----0-----0-----|
6--8-----9-----8--6---/9-----8-----|--6-----6-----6-----6-----|
-----------------------------------|--------------------------|
-----------------------------------|--------------------------|
-----------------------------------|--------------------------|
-----------------------------------|--------------------------|

-----------------------------------|
6--8-----9-----8--6---/9-----8-----|
-----------------------------------|
-----------------------------------|
-----------------------------------|
-----------------------------------|

0--------------------------------------|
6--------------------------------------|
5--------------x--x--x--x--x--x--x--x--|
---------------------------------------|
---------------------------------------|
---------------------------------------|

0--------------------------------------|
6--------------------------------------|
5--------------x--x--x--x--x--x--x--x--|
---------------------------------------|
---------------------------------------|
---------------------------------------|

0--------------------------------------|
6--------------------------------------|
5--------------x--x--x--x--x--x--x--x--|
---------------------------------------|
---------------------------------------|
---------------------------------------|




Ваше мнение



Капча