Trapped in a Box - No Doubt
NO DOUBT (E. Stefani, T. Dumont, G. Stefani, T. Kanal)
Alex [[email protected]]
mr. whoeverownsthisemailadd [[email protected]] asked for some no doubt
tabs. hehe. i'll try to do them all.
INTRO
G|------
D|-12x-
A|------
E|------
VERSE 1
G|-------7-----5-
D|---4-7-----4--- 4x
A|-5-------5-----
E|---------------
G|-----------------
D|---5------------- 2x
A|-----8-5---5-8-5-
E|-6-------6-------
G|-------7-----5-----7---------------
D|---4-7-----4---------7-7/9-9-7-4---
A|-5-------5-------5---------------5-
E|-----------------------------------
G|---5---5---5---5---3---3---------
D|---------------------------------
A|-3---3---3---3---1---1-----------
E|-------------------------1---1-1-
VERSE 2
G|-------7-----5-
D|---4-7-----4--- 4x
A|-5-------5-----
E|---------------
G|--------------------------------
D|--------------------------------
A|--------------------------------
E|-3-3-3---6-6-6---3-3-3---6--6-6-
G|-------7-----5-----7---------------
D|---4-7-----4---------7-7/9-9-7-4---
A|-5-------5-------5---------------5-
E|-----------------------------------
G|---5---5---5---5---3---3---------
D|---------------------------------
A|-3---3---3---3---1---1-----------
E|-------------------------1---1-1-
CHORUS
G|---------------------------------
D|-------5-8-5-----------2-5-2----- 3x
A|---5-8-------8-5---2-5-------5-2-
E|-6---------------3---------------
G|-------------------------
D|-------------------------
A|---5-8-5---5-8-5---------
E|-6-------6---------4-4-4-
VERSE 3
[repeat verse 2 basslines here]
REPEAT CHORUS
INSTRUMENTAL
s = slapped
p = popped
() = muted
G|----------p7-------------------
D|----s4-s7-------s4------------- 4x
A|-s5----------s5----(5)(5)------
E|-------------------------------
G|--------------------------------
D|--------------------------------
A|--------------------------------
E|-3-3-3---6-6-6---3-3-3---6--6-6-
G|----------p7-------------------
D|----s4-s7-------s4------------- 2x
A|-s5----------s5----(5)(5)------
E|-------------------------------
G|----p5----p5----p5----p5----p3----p3------------
D|------------------------------------------------
A|-s3----s3----s3----s3----s1----s1---------------
E|-------------------------------------s1---s1-s1-
BRIDGE
G|-----------------5h7-8-7-5-3-------------------------
D|-5---7-8-7-5-------------------1-0------------------- 4x
A|-------------5---------------------3-----------------
E|-------------------------------------2-2-2-0-2-2-2-0-
G|-----------
D|------12x-
A|-5!--------
E|-----------
VERSE 4
[repeat verse 2 basslines here]
LAST CHORUS (REPEAT TWICE THEN THE TRUMPET THINGY FOR END PART)
G|---------------------------------
D|-------5-8-5-----------2-5-2----- 3x
A|---5-8-------8-5---2-5-------5-2-
E|-6---------------3---------------
G|---------------------------------
D|---------------------------------
A|---5-8-5---5-8-5---3-6-3---3-6-3-
E|-6-------6-------4-------4-------




Ваше мнение



Капча