No Doubt - Tragic Kingdom
Submitted By: Anjel
EMail: [email protected]
(E. Stefani)
Transcribed by Adam Yanalunas

---|----------------------------------
4--|----------------------------------
4--|--12--12--11--11--10--10--9--9--7-
---|----------------------------------

main line fill 1
|---------------------------------------|------------------------
|---------------------------------------|------------------------
|---------------------------------------|-------------5----------
|--7--10--7--6--2--6--7--10--7--6--2--6-|-7--2--6--7-----7--6--2-

|--------------------------------------------
|--------------------------------------------
|----------8--8--10--10-----------6--6--8--8-
|--10--10------------------8--8--------------

|-------------------------------------------------
|-------------------------------------------------
|--8--8--7--7--6--6--5--5--9--9--8--8--7--7--6--6-
|-------------------------------------------------

|--------------------------------------------------------------
|---------------12-----11-----10------------------11-----10----
|--9--9--12--9------9------9------9--8--8--11--8------8------8-
|--------------------------------------------------------------

--------------------------------------------------------------
-9------------------10-----9-----8-----------------9-----8----
----8--7--7--10--7------7-----7-----7--6--6--9--6-----9-----6-
--------------------------------------------------------------

---------------
-7-------------
----6--5--6--7-
---------------

|-----------------11--------------------------------
|--------------9------11--9--------------7--9--8--7-
|--9--9-----9----------------7--7-----7-------------
|--------9-------------------------7----------------

|-------------------------------------------------------------
|-------------------------------------------------------------
|--9--9-----9-----8--8-----8-----7--7-----7-----6--6-----6----
|--------9-----9--------8-----8--------7-----7--------6-----6-

|--------------------------------------------------------------
|--------------------------------------------------------------
|----12----12-----12------14------14------14-----8-----8-----8-
|-10----10----10------12------12------12------6-----6-----6----

|-------------------
|-------------------
|-----7-----7-----7-
|--5-----5-----5----

|------------------------------------------------------------
|-------------8-----7-----6-----------------7-----6-----5----
|-5--5--8--5-----5-----5-----5--4--4--7--4-----4-----4-----4-
|------------------------------------------------------------

------------------------------------------------------
-------------6-----5-----4-----------------5----------
-3--3--6--3-----3-----3-----3--2--2--5--2-----1--2--3-
------------------------------------------------------

|-------------------------------------------------
|-------------------------------------------------
|--9--9--9--9--9--9--9--9--8--8--8--8--8--8--8--8-
|-------------------------------------------------

------------------------------------------------
------------------------------------------------
-7--7--7--7--7--7--7--7--6--6--6--6--6--6--6--6-
------------------------------------------------

As the song moves on, you'll have to use fill 1 more and more
often. And near the end just go up and down from 6 to 9 for
that weird sound like thing.
Also keep in mind that this is just the tabs. Its not all
correct, and you'll have to substitute some of the fret
numbers into the right tempo. Just fiddle with it and you
should get it all correct.




Ваше мнение



Капча