#----------------------------------PLEASE NOTE---------------------------------#
#This file is the author's own work and represents their interpretation of the-#
#song. You may only use this file for private study, scholarship, or research.-#
#------------------------------------------------------------------------------#

No Doubt - Thats Just Me
Submitted By: Anjel
EMail: [email protected]
Tabbed by: Adam Yananlunas
v1.0

intro
---|-----------------------
4--|-----------------------
4--|-----------------------
---|---7--8-----5--3-----1-

|-------------------------------------------------
|--------9-----------9-----------9-----------9----
|-----7--------7--7-----------7--------7--7-------
|--7--------7-----------7--7--------7-----------7-

|-------------------------
|--------7-----------5----
|-----5--------5--5-------
|--5--------5-----------5-

|-------------------------------
|-------------------------------
|-------------------------------
|--7--8-----5--3-----7--8-----1-

|-------------------------------------
|--------------------7--9--7--9--7--9-
|--7--7-----7--9----------------------
|--------7--------7-------------------

1st ending 2nd ending
||----------------------|--------------------||-------------------
||*---------------------|--5--7--5--7--5--7-*||--------7--7-----7-
||*--5--5-----5--7------|-------------------*||-----7--------7----
||---------7--------5---|--------------------||--5----------------

|-------------------
|-------------------
|-----5--5----------
|--7--------5--3--3-

|--------------------------|-------------------------
|--------9--7--5-----------|-------------------------
|-----------------7--5-----|--------------5--5--6--7-
|--7--7-----------------7--|--5--5--6--7-------------

|------------------------------------------------------
|--------------7--7----------------------7--7----------
|--------7--9--------9--7----------7--9--------9--7----
|--7--9--------------------9--7--9-------------------9-

|-------------------------------------------------------
|--------------5--5-----------------------5--5----------
|--------5--7--------7--5-----------5--7--------7--5----
|--5--7--------------------7--5--7--------------------7-

|----------------------------------------------------------------
|----------------------------------------------------------------
|-9--12------------9--12-----------7--9----------7--12-----------
|--------9--9--12---------9--9--12-------7--7--9--------9--9--12-

|----------------------
|--------------9--7----
|--7-----7--9--------9-
|----------------------

--------|-----------------|-------
--------|-----------------|-------
--------|-----------------|-------
--5--3--|--7--8-----5--3--|--7----




Ваше мнение



Капча