From: [email protected] (Kevin Sanders)
Subject: TAB:Sunday Morning by No Doubt
Date: Fri, 20 Sep 1996 19:31:37 GMT
"Sunday Morning" by No Doubt
bass intro harmonics harmonics 4x
----------------------------12~~~-------------7~~~--|---------------------------
------------------------12----------------12--------|---------------------------
----------------------------------------------------|---9--9--9-----9--9--------
----------------------------------------------------|---9--9--9-----9--9--------
----------------------------------------------------|---------------------------
----------------------------------------------------|---------------------------

4x main
rhythm
9--9--9-----9--9--|---------------9-----9--|------------------------------------
9--9--9-----9--9--|---------------9-----9--|------------------------------------
------------------|---9-----9--------------|-----6------------------------------
------------------|---9-----9--------------|--7--6------------------------------
------------------|------------------------|--7--4-------------2--2--------0----
------------------|------------------------|--5--------5/12\0--------4--4-------

4x
------------------|--------------------------------------|---------------9------
------------------|--------------------------------------|---------------9------
------------------|--------------------------------------|---9-----9------------
------------------|--------------------------------------|---9-----9------------
2--4--2--4--2-----|-----2--2--------0--2--4--2--4--2-----|----------------------
---------------4--|--0--------4--4--------------------4--|----------------------

---9--|----------------------------------------------------|--------------------
---9--|----------------------------------------------------|--------------------
------|-----6----------------------------------------------|--------------------
------|--7--6----------------------------------------------|--------------------
------|--7--4-------------2--2--------0--2--4--2--4--2-----|-----2--2-----------
------|--5--------5/12\0--------4--4--------------------4--|--0--------4--4-----

---------------------|----------------------------------------------------------
---------------------|----------------------------------------------------------
---------------------|--------6--6--6--6----------------------------------------
---------------------|--7-----6--6--6--6--2--2--2--2--4--4--4--4--7--7--7--7----
0--2--4--2--4--2-----|--7-----4--4--4--4--2--2--2--2--4--4--4--4--7--7--7--7----
------------------4--|--5-----------------0--0--0--0--2--2--2--2--5--5--5--5----

3x
|--------------------------------------------|----------------------------------
|--------------------------------------------|------------5---------------------
|--6--6--6--6--------------------------6--4--|---------6-----6-----6-----6------
|--6--6--6--6--2--2--2--2--7--7--7--7--6--4--|---7--7-----------7--6--6---------
|--4--4--4--4--2--2--2--2--7--7--7--7--4--2--|---7-----------------4------------
|--------------0--0--0--0--5--5--5--5--------|---5------------------------------

---------|--------------------------------------|-------------------------------
5--------|--------------------------------------|-------------------------------
---6-----|--------------------------------------|-------------------------------
------6--|--------------------------------------|-------------------------------
---------|-----2--2--------0--2--4--2--4--2-----|-----2--2--------0--2--4--2----
---------|--0--------4--4--------------------4--|--0--------4--4----------------

---------|-----------------------------------|----------------------------------
---------|--5--5--4--4-----------------------|--5--5--4--4----------------------
---------|--------------6--6--4--6--4--7--6--|--------------6--6--4--6--4--7----
---------|-----------------------------------|----------------------------------
4--2-----|-----------------------------------|----------------------------------
------4--|-----------------------------------|----------------------------------

3x broken rhythm --------------------
---|---------------9-----9--|--------------------9--9--9--9--9--9--|------------
---|---------------9-----9--|--------------------9--9--9--9--9--9--|------------
6--|---9-----9--------------|--9--9--9--9--9--9--------------------|-----6------
---|---9-----9--------------|--9--9--9--9--9--9--------------------|--7--6------
---|------------------------|--------------------------------------|--7--4------
---|------------------------|--------------------------------------|--5---------

--------------------------------------------|-----------------------------------
--------------------------------------------|-----------------------------------
--------------------------------------------|-----------------------------------
--------------------------------------------|-----------------------------------
-----------2--2--------0--2--4--2--4--2-----|-----2--2--------0--2--4--2--4-----
---5/12\0--------4--4--------------------4--|--0--------4--4--------------------

------|--------------------------------------------------------|----------------
------|--------------------------------------------------------|----------------
------|--------6--6--6--6--------------------------------------|--6--6--6--6----
------|--7-----6--6--6--6--2--2--2--2--4--4--4--4--7--7--7--7--|--6--6--6--6----
2-----|--7-----4--4--4--4--2--2--2--2--4--4--4--4--7--7--7--7--|--4--4--4--4----
---4--|--5-----------------0--0--0--0--2--2--2--2--5--5--5--5--|----------------

3x
------------------------------|--------------------------------------|----------
------------------------------|-----------5-----------------5--------|----------
------------------------6--4--|--------6-----6-----6-----6-----6-----|----------
2--2--2--2--4--4--4--4--6--4--|--7--7-----------7--6--6-----------6--|----------
2--2--2--2--4--4--4--4--4--2--|--7-----------------4-----------------|-----2----
0--0--0--0--2--2--2--2--------|--5-----------------------------------|--0-------

------------------------------|--------------------------------------|----------
------------------------------|--------------------------------------|----------
------------------------------|--------------------------------------|----------
------------------------------|--------------------------------------|----------
2--------0--2--4--2--4--2-----|-----2--2--------0--2--4--2--4--2-----|----------
---4--4--------------------4--|--0--------4--4--------------------4--|----------

you get the idea... the rest is pretty much more of the same
----------------------||--------------------------------------------------------
----------------------||--------------------------------------------------------
----------------------||--------------------------------------------------------
----------------------||--------------------------------------------------------
----------------------||--------------------------------------------------------
----------------------||--------------------------------------------------------




Ваше мнение



Капча