Intro/Main Riff:
------------------------------------
------------------------------------
------------------------------------
------------------------------------
------2-2-----2-2-4-4-2-4-4-2-------
--0-0-----4-4-----------------4-----

Chords (Preverse, Verse, Chorus)
------------------------------------
------------------------------------
--4-4-4-4--6-6-6-6------------------
--4-4-4-4--6-6-6-6------------------
--2-2-2-2--4-4-4-4------------------
------------------------------------

This is really pretty much it.
It's a really easy song to play.




Ваше мнение



Капча