No Doubt - Sixteen
(G. Stefani / T. Kanal)
Transcribed by Marco Gaus
Legend:
h: hammer on
p: pull off
b: bend
r: release bend
~: tremolo
Intro:
(Do artificial harmonics here)
E|----------------||----------------|
B|----------------||----------------|
G|----------------||----------------|
D|-10-10-10-10-10-||----------------|
A|----------------||-10-10-10-10-10-|
E|----------------||----------------|
Solo:
E|-15p12----12-15p12----12-15p12----12-15p12----12-15p12----12---|
B|-------15----------15----------15----------15----------15------|
G|---------------------------------------------------------------|
D|---------------------------------------------------------------|
A|---------------------------------------------------------------|
E|---------------------------------------------------------------|
E|-15p12----12-15b-15b----15br-12-------------------12-----------|
B|-------15-----------------------15b-15p13-15---15----13--------|
G|--------------------------------------------------------14-----|
D|---------------------------------------------------------------|
A|---------------------------------------------------------------|
E|---------------------------------------------------------------|
E|----------------------------------------|
B|----------------------------------------|
G|-14(9)-7-5~---/14~--12~----/17~-------|
D|----------------------------------------|
A|----------------------------------------|
E|----------------------------------------|




Ваше мнение



Капча