No Doubt, Simple Kind of life.
Tabbed by Charlie Davis, [email protected]

sounds better if played on an acoustic guitar but
it doesn't really matter. You'll have to find the strum pattern out by yourself but its not to hard to figure out
x=don't play
verseintro:
e-1--1---1-1-1---1-----0--0----0-0-0----0--0
b-3--3---3-3-3---3-----0--0----0-0-0----0--0 play
g-2--2---2-2-2---2-----0--0----0-0-0----0--0that
d-0--0---0-0-0---0-----2--2----2-2-2----2--2through
a-x--x---x-x-x---x-----3--3----3-3-3----3--3until
e-x--x---x-x-x---x-----0--0----0-0-0----0--0chorus
chorus:
e-0---|--0---|-1----|-1----|--0----|----------
b-1---|--1---|-1----|-3----|--0----|----------
g-0---|--3---|-2----|-3----|--0----|----------
d-2-x5|--2-x5|-3-x3-|-3-x4-|--2-x6-|----------
a-3---|--3---|-x----|-3----|--3----|----------
e-x---|--0---|-x----|-1----|--0----|----------




Ваше мнение



Капча