-------------------------------------------------------------------
OI TO THE WORLD - No doubt
-------------------------------------------------------------------

By: Mike Meusel([email protected])

Intro
G|----------------------|--------------------------------------|
D|----------------------|--------------------------------------|
A|/0>-----4>----5>---7>-|0>-4>-5>-77---------------------------|
E|----------------------|--------------------------------------|

When horns come in
G|------------------------------------------------------------|
D|------------------------------------------------------------|
A|0>-4>-5>-7>-x2----------------------5-4444-55-22-00000------|
E|----------------5555-44-22-000-2-0--------------------------|

Verse 1
G|------------------------------------------------------------|
D|------------------------------------------------------------|
A|0>-4>-5>-7>-x3---4444-55-22-00000---------------------------|
E|------------------------------------------------------------|

Verse 2
G|------------------------------------------------------------|
D|-----------6----4------------------------4-----679----------|
A|----47----7---55-5--754----------4424--55-5--7--------------|
E|--55----99-------------7----5545----------------------------|

G|------------------------------------------------------------|
D|------------------------------------------------------------|
A|----------------------5-4444-55-22-00000--------------------|
E|---5555-44-22-000-2-0---------------------------------------|

Chorus
G|----------------------------------------------------------------------|
D|----------------------------------------------------------------------|
A|55555555-77777777--------------------44444444-55555555-4444-5522-00000|
E|------------------5555-4422-00020000----------------------------------|

Verse 2

Chorus

Solo
G|--------------------------------------------------------|
D|--------------------------------------------------------|
A|0444-0775-055-7-5-4-5-2------2------------7-5-4-2-0-----|
E|-------------------------000----0005--555---------------|

G|-----------------------------------------------------------------------|
D|-6h76---6----------------4--------------------------6-----4-7---67-976-|
A|-----7---7---44-7/11--555-5--777-5-4-------4/7-----7---555-----7-------|
E|----------5--------------------------7--555-----999--------------------|
Horns come in
G|-------------------------------------------------------------------|
D|-----------------------------------------------------------6--67-9-|
A|0-0------44----4--55--45-777-54---0-0-------44---4-55--45-7-7------|
E|---42024---5--7-----7----------7-----040424---5-7----7-------------|
On the roof....
G|-----------------------------------------|
D|-----------------------------------------|
A|------4---5---5-7------------------------|
E|-5---5---------------5--4--2--12/--------|
Police sirens wailing....
G|-----------------------------------------|
D|-----------------------------------------|
A|---4>-5>------4>-5>--7>-or---------------|
E|-5>-----7>--5>------------0>-------------|
Variation of verse(play like a bat out of hell)
G|----------------------------------------------|
D|-----------6--457--------------------4----96--|
A|--457---79---5-----754--------4424-55-5--7--7-|
E|-5-----9--------------7--5545-----------------|

G|------------------------------------------------------------|
D|------------------------------------------------------------|
A|----------------------5-4444-55-22-00000--------------------|
E|---5555-44-22-000-2-0---------------------------------------|

Chorus

End
G|------------------------------------------------|
D|------------------------------------------------|
A|5555-7777-----------------4444-5555-44-5-2-00000|
E|---------55-4-2-0000----------------------------|

I'm pretty sure this is perfect, if you have any corrections,
e-mail me at [email protected]




Ваше мнение



Капча