No Doubt - Move On
Submitted By: Anjel
EMail: [email protected]
Transcribed by Marco Gaus
Legend:
h: hammer on
p: pull off
b: bend
r: release bend
Intro:
E|-----------------------------------------------------|
B|-----------------------------------------------------|
G|------------------5-6-5----------------------5-6-----|
D|----8--7--------7-------7------8--7--------7---------|
A|-5--------5--8--------------5--------5--8------------|
E|-----------------------------------------------------|
E|-----------------------------------------------------|
B|-----------------------------------------------------|
G|------------------5-6-5------------------------------|
D|----8--7--------7-------7------8--7------------------|
A|-5--------5--8--------------5--------5--8----8-7-----|
E|-----------------------------------------------------|
/: rapidly pick string and slide up:
E|-------------------------------|
B|-0/////////////////////15b-----|
G|-------------------------------|
D|-------------------------------|
A|-------------------------------|
E|-------------------------------|
______________
| 4x |
E|------------------------------------------------|
B|------------------------------------------------|
G|-------------------------7---7-----------7---7--|
D|-7-----10--------8---7---7---7---8---7---7---7--|
A|-5-----8---------8---7---5---5---8---7---5---5--|
E|-----------------6---5-----------6---5----------|
Verse(2x):
E|----10------------10---10---------------10-----------|
B|-7---7---10---10---7---7---10---10---7---7--10---10--|
G|-7---7---10---10---7---7---10---10---7---7--10---10--|
D|-7-------10---10-----------10---10---7------10---10--|
A|-----------------------------------------------------|
E|-----------------------------------------------------|
E|--6--6--5--5--5--5--5--5---6--6--5--5----------------|
B|--6--6--5--5--6--6--6--6---6--6--5--5--6-------------|
G|--7--7--6--6--7--7--7--7---7--7--6--6--7-------------|
D|---------------------------------------7-------------|
A|-----------------------------------------------------|
E|-----------------------------------------------------|

You have to understand...:
_________________________________________________________________
| 2x | 2x |
E|--3--3--1--1--3--3-------------|--8--8--6--6--8--8-------------|
B|--3--3--1--1--3--3--4----3-----|--8--8--6--6--8--8--9---8------|
G|--4--4--2--2--4--4--3----2-----|--9--9--7--7--9--9--8---7------|
D|--------------------5----4-----|--------------------10--9------|
A|-------------------------------|-------------------------------|
E|-------------------------------|-------------------------------|
| | |
E|-------------------------------|-------------------------------|
B|-------------------------------|-------------------------------|
G|-------------------------------|-------------------------------|
D|-------------------------------|---------5---6-5---------6--5--|
A|---------5---6-5---------6--5--|-3---5-6---------3---5-6-------|
E|-3---5-6---------3---5-6-------|-------------------------------|
E|------------------4------------|
B|--3---4---3---4---4------------|
G|--5---6---5---6---5------------|
D|--4---5---4---5---6------------|
A|-------------------------------|
E|-------------------------------|
Bridge to guitar solo:
E|-----------------------|
B|-----------------------|
G|-------------6----/9---|
D|-------5-------5-----8-|
A|-4-------4-------------|
E|---3-------------------|
Solo:
Ok, I tried to figure this one out completely but there may
still be some messy parts. If you have any corrections then
mail me!
E|--------------------------------------------------------|
B|-/15--------14-15----14-11h14p11-10-11-10---10h11p10----|
G|------------------15---------------------------------12-|
D|--------------------------------------------------------|
A|--------------------------------------------------------|
E|--------------------------------------------------------|
E|-----------------------------------------------------|
B|-15-16-15h16p15p13-15--------------------------------|
G|-----------------------15p14-15p14p12-14-12b14-------|
D|-----------------------------------------------------|
A|-----------------------------------------------------|
E|-----------------------------------------------------|
E|-----------------------------------------------------|
B|-----------------------------------------------------|
G|-12--/14-12h14p12-11---------------------------------|
D|---------------------13-12-13-12---------------------|
A|-----------------------------------------------------|
E|-----------------------------------------------------|
E|------------------------------------------|
B|----------------------------8-10--11--10--|
G|----------7--------7-7-9-10---------------|
D|---7-8-10---7-8-10------------------------|
A|------------------------------------------|
E|------------------------------------------|
E|-----------------------------------------------------|
B|-/14-11h14p11----15-11h14p11--10--11--10-----10h11---|
G|--------------14-----------------------------------12|
D|-----------------------------------------------------|
A|-----------------------------------------------------|
E|-----------------------------------------------------|
E|-----------------------------------------------------|
B|-15h16p15p13-15--------------------------------------|
G|-----------------15p14-15p14p12-14p12-11b12----r11---|
D|-----------------------------------------------------|
A|-----------------------------------------------------|
E|-----------------------------------------------------|
E|--------------------------|
B|-------10--10--10-/11-----|
G|----11-----11--11-/12-----|
D|-12--------12--12-/13-----|
A|--------------------------|
E|--------------------------|
Interlude(2x) (Don't be afraid...):
E|--------------------------------------------------|
B|--------------------------------------------------|
G|--------------------------------------------------|
D|--------------------------------------------------|
A|--5-4-5---5-4-5---5-4-5---6-5-6---6-5-6---6-5-6---|
E|--------------------------------------------------|
Repeat and fade out:
E|-6--6--6--5--5--5--|
B|-8--8--8--7--7--7--|
G|-8--8--8--7--7--7--|
D|-------------------|
A|-------------------|
E|-------------------|
Solo 2:
E|--------------------------------------------------|
B|--------------------------------------------------|
G|--------------------------------------------------|
D|------------------------------------/8-7-8-7------|
A|--5-4-5---5-4-5---5-4-5--6------------------------|
E|--------------------------------------------------|
E|--------------------------------------------------|
B|--------------------------------------------------|
G|-------------------------/7-6-7-------------------|
D|-8-4-5-7-5-4-5-----5-7-8--------------------------|
A|--------------------------------------------------|
E|--------------------------------------------------|
E|--------------------------------------------------|
B|-11-10h11p10----11-10h11p10-----------------------|
G|-------------12---------------12-13b//--12------|
D|--------------------------------------------------|
A|--------------------------------------------------|
E|--------------------------------------------------|
E|-9-9-9-9h10-10-10-10-11-10h11p10p9-10-------------|
B|--------------------------------------------------|
G|--------------------------------------------------|
D|--------------------------------------------------|
A|--------------------------------------------------|
E|--------------------------------------------------|
E|--------------------10-----------10---------------|
B|-10-11-10h11p10p8-8----8----8h10----8-------------|
G|--------------------------------------------------|
D|--------------------------------------------------|
A|--------------------------------------------------|
E|--------------------------------------------------|
and so on so on... that's it!




Ваше мнение



Капча