#----------------------------------PLEASE NOTE---------------------------------#
#This file is the author's own work and represents their interpretation of the-#
#song. You may only use this file for private study, scholarship, or research.-#
#------------------------------------------------------------------------------#
No Doubt
LET'S GET BACK (BASS)
(G. Stefani / E. Stefani / T. Kanal / T. Dumont)
Transcribed by Eric Siljander
intro
G-|-----------3h5-----------------------------------------------
D-|----------------1--1--3----1h3-----------3h5--1--1--3----1h3-
A-|-------------------------------------------------------------
E-|--3--3--3---------------1-------3--3--3---------------1------
----------3h5------------|------------------8--8--8--------|
---------------1--1--3---|---------------------------------|
-------------------------|---------------------------------|
-3--3--3---------------1-|--4---4---6---6------------6--6--|
verses
|-----5--5--------------------3-------3-----3-----
|----------------------------------------------3--
|--3--------3--------------1-----0h1-----1--------
|--------------4--4--4--4----------------------1--
------5--5--------------------3-------------------
--------------------------------------------------
---3--------3--------------1-----0h1--2--2--2--2--
---------------4--4--4--4-------------------------
------5--5--------------------3-------3-----3-----|
-----------------------------------------------3--|
---3--------3--------------1-----0h1-----1--------|
---------------4--4--4--4----------------------1--|
fill
|--------------------------------------------------|
|--------------------------------------------------|
|--------------------------------------------------|
|--4--4--4--4--4--4--4--4--3--3--3--3--3--3--3--3--|
^_________________^
Tony plays around here
Chorus
||-----------------------------5-----7-----8-----10--||
||-----3-----5-----7-----8---------------------------|| X 4
||--------------------------3-----5-----6-----8------||
||--1-----3-----5-----6------------------------------||
|-----------------------------------------------------------
|-----------------------------------------------------------
|--------------5-5--5--5-4-3--3--0-3-4-5--/5--5-5-3-0-------
|--3--1-3-1-3------------------------------------------31--
-------------------------------------|
-------------------------------------|
----------5-5--5--5-4-3--3--0-3-4-5--|
-1-3-1-3-----------------------------|
|-----------------------------------------------------|
|-----------------------------------------------------|
|--8----------8----------10--------8-9-10---------|
|--------8----------8-----------10------------10--|
during trumpet solo
|-----------5h7-----------3h5-----------5h7----------------|
|-----------------------------------------------------3h5--| X 2
|----------------5--5--5-------3--3--3-------5--5--5-------|
|--3--3--3-------------------------------------------------|
end of guitar solo
|---------------|
|---------------|
|--5--3--4--5--|
|---------------|
During the verses you have to slap and pop pretty damn fast to get it to
sound just right. It really is a tough song to play, especially if you
cannot slap and pop. I couldn't figure out the part during the guitar
solo although I know it's just a bunch of octaves. Well there it is,
have fun.
If you have any questions, comments, corrections, or can figure out
how the part during the solo goes, mail me at
================================================================================




Ваше мнение



Капча