No Doubt - Leftovers
Submitted By: Anjel
EMail: [email protected]
Album: Return of Saturn
Bass tab
Tabbed by: woodie wentworth ([email protected])
Intro/Verse:
G|-------------------------------
D|-------55----------------------
A|--66------------------66-------
E|------------88---66------------ repeat
Pre C/H:
G|----------------------------------------
D|---5--8----55---------5--5--------------
A|-6--6---6------5---3---3---3------6-----
E|-------------------------------66------- repeat then.. ------6/2----
C/H:
G|-------------------------
D|-----55------------------
A|--3---------------6-5----
E|---------4---6-6---------
G|-----------------------------------------------------
D|-----------------------------------------------------
A|------------------------------3-5-3-0-------3-5-3-0--
E|-----33333333-44444444---0----------3-0--------------
G|---------------------
D|---------------------
A|-----------44-3-6-- repeat 2x then
E|-00000-0------------
G|-------------------
D|--333--------------
A|---------------------
E|-------000--333------- 2x
G|------------------------------
D|-----------------------1---55-(beginning part)-
A|-----------4--4-2-1------------
E|--0--3--5----------------------
ending..tony screws around with this..i think
G|-----------------------
D|---------------------
A|-33--------6-5------------
E|----3-4--6------------
i think for the most part this is right...i hope
woodie wentworth
[email protected]




Ваше мнение



Капча