Title: In my head
Artist: No doubt
Album: Rock Steady
Here's a great no doubt song!!!
Intro, Verses & Chorus:
Riff1
Play this palm muted!
e------------------------------
B--3-2-0--0-2-3----------------
G-----------------2-0--0-------
D------------------------2-----
A------------------------------
E------------------------------
Pre-Chorus:
Riff 2
Bm Em7 F#m7
e--7-------7----------------7---------9-
B--------7--------7-----8--------10-----
G------7--------7---------7---------9---
D----9--------9-------------------------
A---------------------------------------
E---------------------------------------
Bridge:
Bass-line
H:Hammer on
P:Pull off
E E
D--2--2-2-H4P2---2--2-2-H4P2-
A----------------------------
E----------------------------
B B
D----------------------------
A--2--2-2-H4P2---2--2-2-H4P2-
E----------------------------
D D
D--0--0-0-H2P0---0--0-0-H2P0-
A----------------------------
E----------------------------
A A
D----------------------------
A--0--0-0-H2P0---0--0-0-H2P0-
E----------------------------
After the bridge there is another Chorus part and
the last part is played like this:
Riff 3
e---2---3----------------
B-0---0--------3---------
G------------0-----2-----
D----------------4-------
A------------------------
E------------------------




Ваше мнение



Капча