From [email protected] Sun May 4 09:40:32 1997
Date: Fri, 14 Mar 1997 16:46:59 +0000 (GMT)
From: "HAKENBERG R.J."
To: [email protected]
Subject: TAB: Happy Now? BY: No Doubt

-------------- Enclosure number 1 ----------------
NO DOUBT
the transcription of:
HAPPY NOW?
From the album: Tragic Kingdom (IND 9003, F:BM650), 1995
Record label: Interscope Records
Transciption by: Ronald Hakenberg
Please send an e-mail to me ([email protected]), because I would like to know who uses this stuff.
My transciption of Hey You can also be found on the Online Guitar Archive.
Intro: Fig 1. 2x
Verse 1 (Am Dm F 2x):
You had the best, but you gave her up
'Cause dependency might interrupt
Idealistic will be so hard to please,
Put your indecisive mind at ease
Am
You broke the set, now there's only singles
There's no lookin back this time I meant it
Chorus (C B G# F 2x):
Are you happy now? How is it now?
Are you happy now? How is it now?
Fig 1. 1x
Verse 2 (Am Dm F 2x + Am Dm):
The uncertainty you had of me, brought clouded shady company
The tenderness habitual, a seldom-fading ritual
You killed the pair, now oly one is breathing
There's no looking back, this time I meant it
Chorus (C B G# F 2x):
Are you happy now? How is it now?
Are you happy now? How is it now?
Fig. 2 (2x)
Are you happy now? How is it now?
Are you happy now?
Interlude (Dm B 2x; Em C 2x):
No more leaning on your shoulder
I won't be there no more bother
If you feel you might just want me
That's too bad, I'm not that easy
Solo: Fig 3. + Fig 4.
Verse 3 (Am Dm F x):
The contemplator all those years
Now you must adhere to your new career of liberation
You've been cast all by yourself
You're free at last
You broke the set Now there's only singles
There's no looking back, this time I mean it
Chorus (C B G# F x + Fig. 2 2x)
Outro (Fig. 3 + Fig. 5):
You're by yourself, all by yourself
You have no one else, you're by yourself
All by yourself (4x)
No one else, no one else
By yourself, by yourself......
Fig. 1
E|-----------------------------------------------------|
B|-4-----4-3-----3-2--------4-----4-3-----3-2--------|
G|---5-------3-------2--------5-------3-------2-------|
D|-----5-------3-------2~~~-----5-------3-------2~~~---|
A|----------------------------------------------------|
E|---------------------------------------------------|
Fig 2.
E|------------------------------------------|
B|------------------------------------------|
G|-5-555-5-5\-7-777-7-7\-8-888-8-8\-(10)-10-|
D|------------------------------------------|
A|-3-333-3-3\-5-555-5-5\-6-666-6-6\-(9)--9--|
E|------------------------------------------|
Fig 3.
E|----------------------------------------------------|
B|-4-----4-3-----3-2-------4-----4-3-----3-4----------|
G|---5-------3-------2-------5-------3-------5-2~~~~--|
D|-----5-------3-------2~~~----5-------3--------------|
A|----------------------------------------------------|
E|----------------------------------------------------|
Fig 4.
E|---------------------------------------------------|
B|-8-------------------------------------------------|
G|-----8----10p8--7---7---8p7---7-7\(5)5---9-99-9----|
D|--10---10---------8---8-----8---8\(6)6---6-66-6----|
A|---------------------------------------------------|
E|---------------------------------------------------|
E|---------------------------------------------------|
B|-8----------------------------------------8-8~~~---|
G|-----8----10p8--7---7---8p7---7-7\(5)5---5--5~~~---|
D|--10---10---------8---8-----8---8\(6)6--6---6~~~---|
A|---------------------------------------------------|
E|---------------------------------------------------|




Ваше мнение



Капча