#----------------------------------PLEASE NOTE---------------------------------#
#This file is the author's own work and represents their interpretation of the-#
#song. You may only use this file for private study, scholarship, or research.-#
#------------------------------------------------------------------------------#
No Doubt
GET ON THE BALL
(E. Stefani / G. Stefani)
Transcribed by Marco Gaus
Intro:
4x:
E|-----------------|
B|-10--10--10--10--|
G|-10--10--10--10--|
D|-----------------|
A|-----------------|
E|-----------------|
E|-----------------------------6-7-8-9--|
B|--------------------7-8-9-10----------|
G|-----------7-8-9-10-------------------|
D|-8-9-10-11----------------------------|
A|--------------------------------------|
E|--------------------------------------|
Get on the ball:
E|-----------------------------------------|
B|-----------------------------------------|
G|-----------------------------------------|
D|---8-6-8-8---------------6-4-6-6---------|
A|-------------2-4-6----------------6-7-8--|
E|-6-----------------4---4-----------------|
2nd guitar plays this (most of the time):
E|-6-6-6-6-7-7-7-7-4-4-4-4---------|
B|-6-6-6-6-7-7-7-7-4-4-4-4-6-6-6-6-|
G|-------------------------6-6-6-6-|
D|---------------------------------|
A|---------------------------------|
E|---------------------------------|
Don't wait too long:
E|---------------------------------------------------------------|
B|---------------------------------------------------------------|
G|----------------6-6-x-6---6--6-8-8-x-8---8--8------------------|
D|-3-3-x-3---3--3-6-6-x-6---6--6-8-8-x-8---8--8-8-8-x-8---8--8---|
A|-3-3-x-3---3--3-4-4-x-4---4--4-6-6-x-6---6--6-8-8-x-8---8--8---|
E|-1-1-x-1---1--1-------------------------------6-6-x-6---6--6---|
There won't be time to even think:
E|----------------------------------------------------------------|
B|----------------------------------------------------------------|
G|----------------------------------------------------------------|
D|-3---3-5-6------------------------------------------------------|
A|------------4-3-4----4---------------3-4-3-4----4---3--4--3-----|
E|------------------------5-6-5-6---6--------------------------6--|
E|------------------------------------------|
B|------------------------------------------|
G|------------------------------------------|
D|----------3--6------------------------6---|
A|-------5--------4--3----------3---6-------|
E|-5--6-----------------6--5--4-------------|
Outro (repeat and fade out):
E|---------------------------------------------------------------|
B|---------------------------------------------------------------|
G|-----5-6-------------3-4-------------1-2-----------0--3--3-----|
D|-6-8-------8-64---6-------6-42---4-------4-2--1--------------|
A|---------------------------------------------------------------|
E|---------------------------------------------------------------|
================================================================================




Ваше мнение



Капча