This is a great tune off the album Tragic Kingdom. I'm pretty sure this tab is 100% correct.
Fig.1
E|--------------------|
B|--10---8---6---5----|
G|--10---9---7---5----|
D|--------------------|
A|--------------------|
E|--------------------|
Fig.2
E|:--------------------------:|--------------------------|
B|:--------------------------:|--------------------------|
G|:--------------------------:|--------------------------|
D|:--------5-7-8--7-5--------:|--------5-7-8--7-5--------|
A|:--5-7-8------------8-7----:|--5-7-8------------8------|
E|:--------------------------:|--------------------------|
(x3)
Fig.3
Dm F Bb Gm
E A D G B E E A D G B E E A D G B E E A D G B E
x 5 7 7 6 5 x 8 10 10 10 8 6 8 8 7 6 6 3 5 5 3 3 3
(x4)
Fig.4
E|--------------------------------------------------|
B|--------------------------------------------------|
G|--------------------------------------------------|
D|--------------------------------------------------|
A|-5-5-5-5---8-8-8-8---13-13-13-13---10-10-10-10----|
E|--------------------------------------------------|
Fig.5
F G Bb C
E A D G B E E A D G B E E A D G B E E A D G B E
1 3 3 x x x 3 5 5 x x x 6 8 8 x x x 8 10 10 x x x
Fig.6 I'm positive these are all the correct chords.
F A7 D7 G7
E A D G B E E A D G B E E A D G B E E A D G B E
1 3 3 2 1 1 5 7 5 6 5 5 x 5 7 5 6 5 3 5 3 4 3 3
Gm7 C7 B7 Bb
E A D G B E E A D G B E E A D G B E E A D G B E
3 5 3 3 3 3 8 10 8 9 8 8 6 8 6 7 6 6 6 8 8 7 6 6
C Am Gm
E A D G B E E A D G B E E A D G B E
8 10 10 9 8 8 5 7 7 5 5 5 3 5 5 3 3 3
This is the order in which the chords are played:
/ \
||: F | A7 | D7 | G7 | Gm7 | C7 | B7 | Bb | C | Bb | Am | Gm :||
\ /
---------------------------------------------------------------------------
Lyrics.
Intro - Fig.1
Verse 1 - Fig.2 I'm like a beggar with no luck
I'm holding signs up
On your streetcorner stops
Like most you try not to see me
You stare straight ahead
Ignore the responsibility
Bridge 1 - Excuse me... excuse me Mr.
Fig.3 & 4 I've been waiting in line
And I'd like to buy some of your time
I'm very anxious, eager, willing
What's your billing?
Chorus 1 - Fig.5 So please excuse me Mr.
You've got things all wrong
You make it feel like like a crime
So don't confuse me Mr.
I've known you too long
All I need is a little of your time
Verse 2 - Fig.2 For most love comes for free
They don't pay the high cost
Of mental custody
I'll pay bail for a guarantee
Please make space for me
In the time yet to be
Bridge 2 - Excuse me... excuse me Mr.
Fig.3 & 4 I've been waiting in line
And I'd like to buy some of your time
I've been saving up my life
What's your price?
Chorus 2 Same as chorus 1
Middle - Fig.6 What should I do?
I'm about to crack
And there's a force
That comes over me
It's almost as if I'm tied to the tracks
And I'm waiting for him
To rescue me
The funny thing is
He's not going to come
He's going to find me
This is a matter of fact
The desire you lack
This is the way I guess it has to be...
Play Fig. 2 A little of your time
I need a little of your time
Please, a little of your time, yeah
Chorus 3 Same as chorus 1
Chorus 4 - Fig.5 Ooh, I'm in line to buy time
I'm in line to buy time
I'm in line to
I'm in line to, excuse me
Well I've been waiting in line
Excuse me, excuse me Mr.
End with note F on string B fret 6.
(G. Stefani, T. Dumont)




Ваше мнение



Капча