#----------------------------------PLEASE NOTE---------------------------------#
#This file is the author's own work and represents their interpretation of the-#
#song. You may only use this file for private study, scholarship, or research.-#
#------------------------------------------------------------------------------#
No Doubt - Excuse Me Mr.
Submitted By: Anjel
EMail: [email protected]
Transcriber: Mr.Samsonite
Trans. email: [email protected]
Legend:
-------
x mute
b bend
r release
h hammer on
p pull off
~ vibrato
/ slide up
slide down
^^ tremolo
Intro: *w/capo on 1st fret
|---1---1--1-1--1---1-1---1---1---1----|-1--1--1---1--1--1---1---1---1--1------|
|---10-10-10-10-10-8-8---8--8----8----6--6--6---6--6-5---5---5--5---5--/---|
|---10-10 10-10-10-9-9---9--9----9---|-7--7--7---7--7-5---5---5--5---5-/----|
|--------------------------------------|---------------------------------------|
|--------------------------------------|---------------------------------------|
|--------------------------------------|---------------------------------------|
|---1---1--1--1- 1---1-1----1--1----1----|-1--1--1---1--1--1---1---1---1--1------|
|-/-10--10-10 10-10-8-8----8--8----8----|-6--6--6---6--6 -5---5-- 5--5---5------|
|-/-10--10-10 10-10-9-9----9--9----9----|-7--7--7---7--7 -5---5--5---5---5------|
|----------------------------------------|---------------------------------------|
|----------------------------------------|---------------------------------------|
|----------------------------------------|---------------------------------------|
Rhy. fig. 1 (w/out capo)
|---------------------------------------|---------------------------------------|
|-----------3-------------3-3-----------|------3--3---3----------3--------------|
|------2-----------------------0--2-----|--3------------2--0-0------------------|
|---0-----------2----3------------------|---------------------------3---2-------|
|---------------------------------------|---------------------------------------|
|---------------------------------------|---------------------------------------|
|---------------------------------------|---------------------------------------|
|-----------3--3-----------3-3----------|------3-------3-----0---3-------3------|
|------2------------------------0---2---|--3-------2-----2---0------3----x------|
|---0-------------2--3------------------|--------------------------------2------|
|---------------------------------------|---------------------------------------|
|---------------------------------------|---------------------------------------|
|---------------------------------------|---------------------------------------|
|-------------3-----------3-3-----------|----3----3----------3--3---------------|
|------2------------------------0---2---|-3--3-------2---0---0--0---------------|
|--0-------------2---3------------------|----------------------------3----2-----|
|---------------------------------------|---------------------------------------|
|---------------------------------------|---------------------------------------|
|---------------------------------------|---------------------------------------|
|-----------3-------------3-3-----------|--3-------3------3---------------------|
|------2-----------------------0--2-----|--3-------2------0---------------------|
|---0-----------2----3------------------|--------------------------3-----3------|
|---------------------------------------|---------------------------------------|
|---------------------------------------|---------------------------------------|
Pre-Chorus: Rhy. fig. 3
|---5----5----x--x-x--x-----------------|---------------------------------------|
|---6----6----x--x-x--x10--10-x-x-x--x--|---------------------------------------|
|---7----7----x--x-x--x10--10-x-x-x--x--|-----------x-x-x-x---------x--x-x-x--x-|
|---7----5----x--x-x--x10--10-x-x-x--x--|--8----8---x-x-x-x--5---5--x--x-x-x--x-|
|---5----5----x--x-x--x- 8-- 8-x-x-x-x--|--8----8---x-x-x-x--5---5--x--x-x-x--x-|
|---------------------------------------|--6----6---x-x-x-x--3---3--x--x-x-x- x-|
|---5----5----x--x-x--x-----------------|-6---6-----------3---3-----------------|
|---6----6----x--x-x--x10--10-x-x-x-----|-6---6-----------3---3-----------------|
|---7----7----x--x-x--x10--10-x-x-x-----|-7---7--x-x-x-x--3---3---x-x-x-x-------|
|---7----5----x--x-x--x10--10-x-x-x-----|-8---8--x-x-x-x--5---5---x-x-x-x-------|
|---5----5----x--x-x--x-8--8--x-x-x-----|-8---8--x-x-x-x--5---5---x-x-x-x-------|
|---------------------------------------|-6---6--x-x-x-x--3---3---x-x-x-x-------|
Chorus:
|---------------------------------------|---------------------------------------|
|---------------------------------------|---------------------------------------|
|----7--7-7--/10-10-10-10--10--10--10-/-|-15-15-15-15-15-15-11121212-12-1212--|
|----x--x-x---x--x--x--x---x---x----x---|--x--x--x-x---x--x--x-x-x-x--x--x--x---|
|----5--5-5--/8--8--8--8---8---8----8--/|-13-13-13-13-13-13-11101010-10-10-10-|
|---------------------------------------|---------------------------------------|
Entrance to Interlude *(all guitars out during interlude)*
|---1---1--1-1--1---1-1---1---1---1----|-1--1--1---1--1--1---1---1---1--1-------|
|---10-10-10-10-10-8-8---8-- 8---8- -6--6--6---6--6-5---5---5--5---5--/------|
|---10-10-10-10-10-9-9---9- -9---9--|-7--7--7---7--7-5---5---5--5---5-/------|
|--------------------------------------|----------------------------------------|
|--------------------------------------|----------------------------------------|
|--------------------------------------|----------------------------------------|
Rhy. fig. 4
|---1---1---1--1- 1---3----3---3--3---3--|-6--6--6---6--6-----8-8---8---8---8--x-|
|---1---1---1--1- 1---3----3---3--3---3--|-6--6--6---6--6-----8-8---8---8---8--x-|
|---2---2---2--2- 2---4----4---4--4---4--|-7--7--7---7--7-----9-9---9---9---9--x-|
|---3---3---3--3- 3---5----5---5--5---5--|-8--8--8---8--8----10-10-10--10--10--x-|
|---3---3---3--3- 3---5----5---5--5---5--|-8--8--8---8--8----10-10-10--10--10--x-|
|---1---1---1--1- 1---3----3---3--3---3--|-6--6--6---6--6-----8-8---8---8---8---x|
|---1---1---1---1----1----6---6--6--6---|--3---3---3--x-x-x---8-----8----8-------|
|---1---1---1---1----1----6---6--6--6---|--3---3---3--x-x-x---8-----8----8------|
|---2---2---2---2----2----7---7--7--7---|--4---4---4--x-x-x---9-----9----9------|
|---3---3---3---3----3----8---8--8--8---|--5---5---5--x-x-x--10----10---10------|
|---3---3---3---3----3----8---8--8--8---|--5---5---5--x-x-x--10----10---10------|
|---1---1---1---1----1----6---6--6--6---|--3---3---3--x-x-x--
8-----8----8------|
Outro freely w/ drum fill
|---------------------------------------|----------------------------------------|
|---------------------------------------|----10------------------10-------------|
|-8-8-8-8-8-8-8-8-10 10 10 10 10 1010--x-----|----10------------------10--------|
|-8-8-8-8-8-8-8-8-10 10 10 10 10 1010--x-----|----10------------------10--------|
|-6-6-6-6-6-6-6-6- 8- 8- 8- 8- 8 8- 8---x-----|---8-------------------8--------|
|---------------------------------------|----------------------------------------|




Ваше мнение



Капча