Ex-girlfriend
No Doubt
Return To Saturn

Tabbed By: JP Fernandez

Normal Tuning (G-D-A-E)

Riff 1:
-----------------------------------------------
-----------------------------------------------
---2-2-2-2------------------2-2-2-2------------
--------------0-0-0-0------------------0-0-0-0-

Riff 2 (chorus):
-----------------------------------------------------------
-----------------------------------------------------------
--------------2-2-2-2--3-3-3-3------------3-3-3-3--2-2-2-2-
--0-0-0-0-------------------------0-0-0-0------------------

Riff 3:
------------------------------------------------------------
------------------------------------------------------------
2-2-2-2------------2-2-2-2------------2-2-2-2--3-3-7-7------
-----------0-0-0-0------------0-0-0-0-----------------------




Ваше мнение



Капча