Different People
No Doubt
There's more
but armed with this you should be able to work the rest out.
Tabbed by BobulatorM
email [email protected]
Part 1 Part 2
G---||--------------------|--------------||--------||--------4--6--4----
D---||--------------------|--------------||--------||-----6-------------
A---||--4--4--4--3--3--3--|--2--2--2--3--||--------||--4----------------
E---||--------------------|--------------||--------||-------------------


G---------------------------|-----------------------------------|-------
D---6--x--------7--6--4-----|-----------------------------------|-------
A------------------------6--|--7--7-----4--7--x--3--x--------3--|--4----
E---------5--5--------------|--------7-----------------3--5-----|-------


G------4--6--4--------------------------|-------------------------------
D---6-----------6--x--------7--6--4-----|-------------------------------
A------------------------------------6--|--7--7-----4--7--x--3--x-------
E---------------------5--5--------------|--------7-----------------3----

Part 3
G---------||--------||--------------------------------------|-----------
D---------||--------||-----6--6--6--6--x--------------------|-----------
A------3--||--------||--4-----------------------7--7--7--x--|--7--x-----
E---5-----||--------||--------------------5--5--------------|-----------


G---------------------------|-------------------------------------------
D---------------------------|-----6--6--6--6--x-------------------------
A------4--7--3--x--------3--|--4-----------------------7--7--7--x--7----
E---7--------------3--5-----|--------------------5--5-------------------

repeat 3 x 2
G------|--------------------------------||------------------------------
D------|--------------------------------||------------------------------
A---x--|--7--x-----4--7--3--x--------3--||------------------------------
E------|--------7--------------3--5-----||------------------------------

Part 4
G---||--------4--6--x--x-----------------|------------------------------
D---||-----6-----------------7--6--4--x--|------------------------------
A---||--4--------------------------------|--7--x-----4--7--3--x---------
E---||--------------------5--------------|--------7--------------3------


G---------|--------4--6--x--x-----------------|-------------------------
D---------|-----6-----------------7--6--4--x--|-------------------------
A------3--|--4--------------------------------|--7--x-----4--7--3--x----
E---5-----|--------------------5--------------|--------7----------------


G------------||-----------||--------------------|--------------||-------
D------------||-----------||--------------------|--------------||-------
A---------3--||-----------||--4--4--4--3--3--3--|--2--2--2--3--||-------
E---3--5-----||-----------||--------------------|--------------||-------

part 5
G---------||-----------|--------------------|-------------|-------------
D---------||-----------|-----4--------------|-------------|-------------
A---------||--4--3--3--|--2-----2--1--------|-------------|--2--2--2----
E---------||-----------|--------------2--2--|/5--4--2--0--|-------------

repeat 2 x 2 repeat 3 repeat 4
G---||-----------------------------------------------||-----------------
D---||-----------------------------------------------||-----------------
A---||-----------------------------------------------||--4--4--4--3-----
E---||-----------------------------------------------||-----------------


G---------|--------------------||---------------------------------------
D---------|--------------------||---------------------------------------
A---3--3--|--2--2--2--3--3--3--||---------------------------------------
E---------|--------------------||---------------------------------------


========================================================================
== TABLATURE EXPLANATION ==
========================================================================
---------- ---------- ----t---
----5h8--- Hammeron ----(8)--- Ghost ----6--- Tap
---------- ---------- Note --------
----5p8--- Pulloff ---------- --------
---------- ---------- -----p--
----5/8--- Slide Up -----x---- Dead -----7-- Pop
---------- ---------- Note --s-----
----58--- Slide Down ---------- --5----- Slap
---------- ||------|| Repeat --------
----5~~~-- Vibrato ||*----*|| ---5^--- Bend
---------- ||*----*|| --------
---------- ||------|| --------
---------- ---------- --------
-4:------- Time ---------- --------
-4:------- Signature ---------- --------
---------- ---------- --------




Ваше мнение



Капча