#----------------------------------PLEASE NOTE---------------------------------#
#This file is the author's own work and represents their interpretation of the-#
#song. You may only use this file for private study, scholarship, or research.-#
#------------------------------------------------------------------------------#
Artist:No Doubt
Album:No Doubt
Song:BND
Transcribed by:GOo ([email protected])
Here's song 2 in the GOo No Doubt tab series. (Yeah, whatever..)
Anyway, here's a short but sweet song from their debut self-titled
disc. It feels like it's in 4, so that's how I'm going to tab it.
Riff 1:Intro (Clean)
--------------------
C F F C
e||--------------------------|-------------||
B||----8-----------10----10--|--8----------||
G||o---9-----------10----10--|--9---------o||
D||o--10-----------10----10--|-10---------o||
A||---10-----------8-----8---|-10----------||
E||----8---------------------|--8----------||
1 2 3 + (4) + 1
Riff 2: Verse 1 (Clean)
-----------------------
e||---8--x-x-7/8----8--x-x--8----|-------8---x----x-------------8--8----||
B||---8--x-x-7/8----8--x-x--8----|-------8---x-8--x-11--11--10--8--8----||
G||o--9--x-x-8/9----9--x-x--9----|----9--9---x-9--x-9---9---9---9--9---o||
D||o--10-x-x-9/10---10-x-x--10---|-10----10--x-10-x-10--10--10--10-10--o||
A||------------------------------|--------------------------------------||
E||------------------------------|--------------------------------------||
Riff 3a: Pickup to Riff 3b: (Distortion)
----------------------------------------
This is on the And of 1 of the
last repeat in Riff 2
1 + 2 + 3 + 4 +
e||--------------------------------||
B||--------------------------------||
G||--------------------------------||
D||------10--8---------------------||
A||--------------10--9---8---------||
E||--------------------------11--8-||
Riff 3b: Bridge (Distortion)
----------------------------
e||----------------------------------------||
B||----------------------------------------||
G||o--------------------------------------o||
D||o--5-5-5-5--6-6-6-6--8-8-8-8--9-9-9-9--o||
A||---5-5-5-5--6-6-6-6--8-8-8-8--9-9-9-9---||
E||---3-3-3-3--4-4-4-4--6-6-6-6--7-7-7-7---||
Riff 4: Verse 2 (Distortion)
----------------------------
e||--------------------------|--------------------------|
B||--------------------------|--------------------------|
G||--------------10-10-10-10-|--------------10-10-10-10-|
D||-10-10-10-10--10-10-10-10-|-10-10-10-10--10-10-10-10-|
A||-10-10-10-10---8--8--8--8-|-10-10-10-10---8--8--8--8-|
E||--8--8--8--8--------------|--8--8--8--8--------------|
e||--------------|--------------|--------------||
B||--------------|--------------|--------------||
G||--------10-10-|-------10-10--|--------------||
D||--10-10-10-10-|-10-10-10-10--|--10----------||
A||--10-10--8--8-|-10-10-8--8---|--10----------||
E||---8--8-------|--8--8--------|---8----------||
===============================================================================




Ваше мнение



Капча