#----------------------------------PLEASE NOTE---------------------------------#
#This file is the author's own work and represents their interpretation of the-#
#song. You may only use this file for private study, scholarship, or research.-#
#------------------------------------------------------------------------------#
No Doubt - Ache
(E. Stefani)
Transcribed by Marco Gaus
Intro:
E|---------|
B|-8---7---|
G|-8---7---|
D|-8---7---|
A|-6---5---|
E|---------|
Verse: (3x)
E|--------------------------|
B|-8--8--7--7--8--8--8--8---|
G|-8--8--7--7--7--7--8--8---|
D|-8--8--7--7--8--8--10-10--|
A|--------------------------|
E|--------------------------|
Please make the suffering go away..:
______________________________
| 1 | 2 |
E|-------------------|-----------|----------------|
B|-8---8-8-7---7-----|-8-8-8-8-8-|-8--8-----8-8-8-|
G|-8---8-8-7-----7---|-7-7-7-7-7-|-7--7-----7-7-7-|
D|-8---8-8-7-------7-|-----------|-8--8-----8-8-8-|
A|-6---6-6-5--5------|-----------|----------------|
E|-------------------|-----------|----------------|
Ooh ahh.. the pain is tremendous:
E|-------------------------------------------------|
B|-8--8--8--8--8--8--8--8--9--9--9--9--11-11-11-11-|
G|-7--7--7--7--8--8--8--8--8--8--8--8--10-10-10-10-|
D|-------------------------------------------------|
A|-------------------------------------------------|
E|-------------------------------------------------|
He turned around...:
E|------------------------|
B|-8--8--8--8--8--8--8--8-|
G|-8--8--7--7--8--8--7--7-|
D|-8--8--8--8--8--8--8--8-|
A|------------------------|
E|------------------------|
E|-----------------------------------------------------------|
B|-8--8--7--7--8--8--8--8---6-6-6-6-6----7---8-8-8-8-7-7-7-7-|
G|-8--8--7--7--7--7--8--8---5-5-5-5-5----7---8-8-8-8-7-7-7-7-|
D|-8--8--7--7--8--8--10-10--7-7-7-7-7----7---8-8-8-8-7-7-7-7-|
A|-----------------------------------------------------------|
E|-----------------------------------------------------------|
E|-------------------------5-5-5-5---------6-6-6-6-|
B|-6-6-6-6-5-5-5-5-8-8-8-8-6-6-6-6-7-7-7-7-8-8-8-8-|
G|-7-7-7-7-6-6-6-6-8-8-8-8-7-7-7-7-7-7-7-7-7-7-7-7-|
D|-8-8-8-8-7-7-7-7-8-8-8-8---------7-7-7-7-8-8-8-8-|
A|-------------------------------------------------|
E|-------------------------------------------------|
But when will I speak...:
E|-8--8----4-4---1-1---6-6---8--8----4-4---1-1---6-6--|
B|-8--8----4-4---1-1---6-6---8--8----4-4---1-1---6-6--|
G|-8--8----5-5---2-2---7-7---8--8----5-5---2-2---7-7--|
D|-10-10---6-6---3-3---8-8---10-10---6-6---3-3---8-8--|
A|----------------------------------------------------|
E|----------------------------------------------------|
How do you feel? (4x):
E|-8-8-8-8-8-8-8-8-9-9-9-9-11----11----11--|
B|-8-8-8-8-9-9-9-9-9-9-9-9---11----11------|
G|-----------------------------8-----8-----|
D|-----------------------------------------|
A|-----------------------------------------|
E|-----------------------------------------|
================================================================================




Ваше мнение



Капча