No Doubt - A Little Something Refreshing
Submitted By: Anjel
EMail: [email protected]
Transcribed by Marco Gaus
Legend:
h: hammer on
p: pull off
Intro:
E|-3---3-3---------------------3---3-3-----------------------------|
B|-3---3-3---------------------4---4-4-----4-3h4p3-----4-3h4p3-----|
G|-5---3-3----3--5-3h5p3-2-3---5---3-3---3---------5-3---------5-3-|
D|-5---------------------------5-----------------------------------|
A|-----------------------------------------------------------------|
E|-----------------------------------------------------------------|
E|-----------|
B|-3---3-4---|
G|-5---3-3---|
D|-5---------|
A|-----------|
E|-----------|
E|-1---1-1-----------------|
B|-1---1-1---1-1---1-1-1---|
G|-3---2-2---0-0---0-2-2---|
D|-3---3-3---3-3---3-3-3---|
A|-------------------------|
E|-------------------------|
Verse (4x):
E|-------6-6-6-------6-6-6-|
B|-8-8-8-8-8-8-8-8-8-8-8-8-|
G|-7-7-7-------8-8-8-------|
D|-------------------------|
A|-------------------------|
E|-------------------------|
Eat...:
E|-3---3-3----3--3--3-3---3-3-3--3---3-3---3--3--3---|
B|-3---3-3----3--3--4-4---4-4-4--3---3-4---4--4--4---|
G|-5---3-3----3--3--5-5---3-3-3--5---3-3---3--3--3---|
D|-5----------------5-5----------5-------------------|
A|---------------------------------------------------|
E|---------------------------------------------------|
I'm full at last (4x):
E|-----------------------|--8-8-7-7-6-6-7-7-8--||---8---|
B|-----------------------|--9-9-8-8-7-7-8-8-9--||---9---|
G|-5---5---2---2---6---8-|--8-8-7-7-6-6-7-7-8--||---8---|
D|-6---6---3---3---6---8-|---------------------||-------|
A|-----------------------|---------------------||-------|
E|-----------------------|---------------------||-------|




Ваше мнение



Капча