Date: Sat, 11 Jan 1997 13:25:42 -0500
From: Generic User u1005456
Subject: TAB: You Got No Right by Nirvana

Title:You Got No Right
Artist: Nirvana
Transcribed by:Rick Castronova- [email protected]
This is an unreleased live song. I this already exists as On The Mountain, but I thought mine looked different than the others. This is my first tab. Send any corrections to me- [email protected]
Main riff:
e|------------------------
B|------------------------
G|------------------------ Repeat this the whole verse
D|------------------------
A|------------------------
E|-2-2-2-0-2-2-2-2-2-0-0-2

Then Do this:
G|-2-2-0-2-0-2-2-0-0------
D|-2-2-0-2-0-2-2-0-0------ Do this twice
A|-2-2-0-2-0-2-2-0-0------

Back to the verse

e|------------------------
B|------------------------
G|------------------------ Repeat this the whole verse
D|------------------------
A|------------------------
E|-2-2-2-0-2-2-2-2-2-0-0-2

Then The Chorus:
Part 1 part 2
e|---------------------|----------------------
B|---------------------|---------------------- play part 1 once
G|---------------------|---------------------- play part 2 the
D|-5-5-7-5-5-5-7-7-7-7-|-5-5-7-5-5-5-7-7-7---- rest of the chorus
A|-5-5-7-5-5-5-7-7-7-7-|-5-5-7-5-5-5-7-7-7----
E|-3-3-5-3-3-3-5-5-5-5-|-3-3-5-3-3-3-5-7-7----

Back to the Main riff:
E|-2-2-2-0-2-2-2-2-2-0-0-2
Then Do this:
G|-2-2-0-2-0-2-2-0-0------
D|-2-2-0-2-0-2-2-0-0------ Do this twice
A|-2-2-0-2-0-2-2-0-0------

Then The Chorus:
Part 1 part 2
e|---------------------|----------------------
B|---------------------|---------------------- play part 1 once
G|---------------------|---------------------- play part 2 the
D|-5-5-7-5-5-5-7-7-7-7-|-5-5-7-5-5-5-7-7-7---- rest of the chorus
A|-5-5-7-5-5-5-7-7-7-7-|-5-5-7-5-5-5-7-7-7----
E|-3-3-5-3-3-3-5-5-5-5-|-3-3-5-3-3-3-5-7-7----

Back to the Main riff:
E|-2-2-2-0-2-2-2-2-2-0-0-2

Then Do this:
G|-2-2-0-2-0-2-2-0-0------
D|-2-2-0-2-0-2-2-0-0------ Do this twice
A|-2-2-0-2-0-2-2-0-0------

Back to the Main riff:
E|-2-2-2-0-2-2-2-2-2-0-0-2

Then The Chorus:
Part 1 part 2
e|---------------------|----------------------
B|---------------------|---------------------- play part 1 once
G|---------------------|---------------------- play part 2 the
D|-5-5-7-5-5-5-7-7-7-7-|-5-5-7-5-5-5-7-7-7---- rest of the chorus
A|-5-5-7-5-5-5-7-7-7-7-|-5-5-7-5-5-5-7-7-7----
E|-3-3-5-3-3-3-5-5-5-5-|-3-3-5-3-3-3-5-7-7----

then do a long improvised solo




Ваше мнение



Капча