Nirvana
Guitar 1
Needs bass. Can anyone help?


D#||-----|--------------------------|--------------------------|
A#||-----|--------x-----------0-----|--------0-----------x-----|
F#||-----|--------x-----------------|--------------------x-----|
C#||-----|--------x-----------------|--------------------x-----|
G#||--5/-|--7--7-----5/-8--8-----5/-|--7--7-----5/-8--8--x--5/-|
D#||--3/-|--5--5-----3/-6--6-----3/-|--5--5-----3/-6--6--0--3/-|

--------------------------|--------------------------|
--------x-----------x-----|--------x-----------------|
--------x--------7--x--4/-|--6--6--x--4/-7--7--------|
--------x-----------x-----|--------x-----------------|
--7--7--x--5/-8--8--x--5/-|--7--7--x--5/-8--8--------|
--5--5--0--3/-6--6--0--3/-|--5--5--0--3/-6--6--0--3--|

--------------------------|--------------------------|
--------x-----------x-----|--------x-----------x-----|
--6--6--x-----------x-----|--------x-----------x-----|
--------x-----------x-----|--------x-----------x-----|
--7--7--x--5/-8--8--x--5/-|--7--7--x--5/-8--8--x--5/-|
--5--5--x--3/-6--6--x--3/-|--5--5--x--3/-6--6--x--3/-|

--------------------------|--------------------------|
--------x-----------x-----|--------x-----------x-----|
--------x-----------x-----|--------x--------7--x--4--|
--------x-----------x-----|--------x-----------x-----|
--7--7--x--5/-8--8--x--5/-|--7--7--x--5/-8--8--x--5--|
--5--5--x--3/-6--6--x--3/-|--5--5--x--3/-6--6--x--3--|

--0--0--------------------|--------------------------|
--------x-----------x-----|--------x-----------x-----|
--6--6--x-----------x--4/-|--6--6--x--4/-7--7--x--4--|
--------x-----------x-----|--------x-----------x-----|
--7--7--x--5/-8--8--x--5/-|--7--7--x--5/-8--8--x--5--|
--5--5--x--3/-6--6--x--3/-|--5--5--x--3/-6--6--x--3--|

--0--0--------------------|-----------------------0--|
--------x-----------x-----|--------x-----------x-----|
--6--6--x-----------x-----|--------x-----------x--4--|
--------x-----------x-----|--------x-----------x-----|
--7--7--x--5/-8--8--x--5/-|--7--7--x--5/-8--8--x--5--|
--5--5--x--3/-6--6--x--3/-|--5--5--x--3/-6--6--x--3--|

--0--0--------------------|---------------------------|
--------x-----------x-----|--------x-----------x------|
--6--6--x-----------x-----|--------x-----------x------|
--------x-----------x-----|--------x-----------x------|
--7--7--x--5/-8--8--x--5/-|--7--7--x--5/-8--8--x--5-5-|
--5--5--x--3/-6--6--x--3/-|--5--5--x--3/-6--6--x--3-3-|

-------------------------|-------------------------|-------------------------|
-------------------------|-------------------------|-------------------x-----|
-------------------------|-------------------------|-------------------x-----|
-------------------------|-------------------------|-------------------x-----|
--5----5--5--5--5--5-3--|--3----3----10--9--5--5--|--7--7----5/-8--8--x--5/-|
--3----3--3--3--3--3-1--|--1----1----8---7--3--3--|--5--5----3/-6--6--x--3/-|

-----------------------0--|--0--0--------------------|
--------x-----------x-----|--------x-----------x-----|
--------x-----------x--4--|--6--6--x--------7--x-----|
--------x-----------x-----|--------x-----------x-----|
--7--7--x--5/-8--8--x--5--|--7--7--x--5/-8--8--x--5/-|
--5--5--x--3/-6--6--x--3--|--5--5--x--3/-6--6--x--3/-|

--------------------------|--------------------------|
--------x-----------x-----|--------x-----------x-----|
-----6--x--------7--x--4--|--------x-----------x-----|
--------x-----------x-----|--------x-----------x-----|
--7--7--x--5/-8--8--x--5--|--7--7--x--5/-8--8--x--5/-|
--5--5--x--3/-6--6--x--3--|--5--5--x--3/-6--6--x--3/-|

--------------------------|--0--0--------------------|
--------x-----------x-----|--------x-----------x-----|
--------x--------7--x--4--|--6--6--x-----------x--4/-|
--------x-----------x-----|--------x-----------x-----|
--7--7--x--5/-8--8--x--5--|--7--7--x--5/-8--8--x--5/-|
--5--5--x--3/-6--6--x--3--|--5--5--x--3/-6--6--x--3/-|

--------------------------|--0--0--------------------|
--------x-----------x-----|--------x-----------x-----|
--6--6--x--4/-7--7--x--4--|--6--6--x-----------x-----|
--------x-----------x-----|--------x-----------x-----|
--7--7--x--5/-8--8--x--5--|--7--7--x--5/-8--8--x--5/-|
--5--5--x--3/-6--6--x--3--|--5--5--x--3/-6--6--x--3/-|

-----------------------0--|--0--0--------------------|
--------x-----------x-----|--------x-----------x-----|
--------x-----------x--4--|--6--6--x-----------x-----|
--------x-----------x-----|--------x-----------x-----|
--7--7--x--5/-8--8--x--5--|--7--7--x--5/-8--8--x--5/-|
--5--5--x--3/-6--6--x--3--|--5--5--x--3/-6--6--x--3/-|

---------------------------|--------------------------|
--------x-----------x------|--------------------------|
--------x-----------x------|--------------------------|
--------x-----------x------|--------------------------|
--7--7--x--5/-8--8--x--5-5-|--7--7--7--5/-8--8--8--5/-|
--5--5--x--3/-6--6--x--3-3-|--5--5--5--3/-6--6--6--3/-|

--------------------------|--------------------------|
--------------------------|--------------------------|
--------------------------|--------------------------|
--------------------------|--------------------------|
--7--7--7--5/-8--8--8--5/-|--7--7--7--5/-8--8--8--5/-|
--5--5--5--3/-6--6--6--3/-|--5--5--5--3/-6--6--6--3/-|

--------------------------|-------------------------|
--------------------------|-------------------------|
--------------------------|----------5/-8--8--8--8--|
--------------------------|----------5/-8--8--8--8--|
--7--7--7--5/-8--8--8--5--|--7----x--3/-6--6--6--6--|
--5--5--5--3/-6--6--6--3--|--5----x-----------------|

---------------------------|-------------------------|
---------------------------|-------------------------|
--8/-12--12---------------|----------5/-8--8--8--8--|
--8/-12--12---------------|----------5/-8--8--8--8--|
--6/-10--10---5--4--5/-7--|--7----x--3/-6--6--6--6--|
---------------3--2--3/-5--|--5----x-----------------|

---------------------------|-------------------------|
---------------------------|-------------------------|
--8/-12--12---------------|----------5/-8--8--8--8--|
--8/-12--12---------------|----------5/-8--8--8--8--|
--6/-10--10---5--4--5/-7--|--7----x--3/-6--6--6--6--|
---------------3--2--3/-5--|--5----x-----------------|

---------------------------|-------------------------|
---------------------------|-------------------------|
--8/-12--12---------------|----------5/-8--8--8--8--|
--8/-12--12---------------|----------5/-8--8--8--8--|
--6/-10--10---5--4--5/-7--|--7----x--3/-6--6--6--6--|
---------------3--2--3/-5--|--5----x-----------------|

---------------------------|--------------------------|
---------------------------|--------x-----------x-----|
--8/-12--12---------------|--------x-----------x-----|
--8/-12--12---------------|--------x-----------x-----|
--6/-10--10---5--4--5/-7--|--7--7--x--5/-8--8--x--5/-|
---------------3--2--3/-5--|--5--5--x--3/-6--6--x--3/-|

--------------------------|--0--0--------------------|
--------x-----------x-----|--------x-----------x-----|
-----6--x--------7--x--4--|--6--6--x-----------x-----|
--------x-----------x-----|--------x-----------x-----|
--7--7--x--5/-8--8--x--5--|--7--7--x--5/-8--8--x--5/-|
--5--5--x--3/-6--6--x--3--|--5--5--x--3/-6--6--x--3/-|

--------------------------|--0--0--------------------|
--------x-----------x-----|--------x-----------x-----|
--------x--------7--x--4--|--6--6--x-----------x--4/-|
--------x-----------x-----|--------x-----------x-----|
--7--7--x--5/-8--8--x--5--|--7--7--x--5/-8--8--x--5/-|
--5--5--x--3/-6--6--x--3--|--5--5--x--3/-6--6--x--3/-|

--------------------------|--0--0--------------------|
--------x-----------x-----|--------x-----------x-----|
--6--6--x--4/-7--7--x--4--|--6--6--x-----------x-----|
--------x-----------x-----|--------x-----------x-----|
--7--7--x--5/-8--8--x--5--|--7--7--x--5/-8--8--x--5/-|
--5--5--x--3/-6--6--x--3--|--5--5--x--3/-6--6--x--3/-|

-----------------------0--|--0--0--------------------|
--------x-----------x-----|--------x-----------x-----|
--------x-----------x--4--|--6--6--x-----------x-----|
--------x-----------x-----|--------x-----------x-----|
--7--7--x--5/-8--8--x--5--|--7--7--x--5/-8--8--x--5/-|
--5--5--x--3/-6--6--x--3--|--5--5--x--3/-6--6--x--3/-|

---------------------------|-------------------------|-------------------------|
--------x-----------x------|-------------------------|-------------------------|
--------x-----------x------|-------------------------|-------------------------|
--------x-----------x------|-------------------------|-------------------------|
--7--7--x--5/-8--8--x--5-5-|--5----5--5--5--5--5-3--|--3----3----10--9--5--5--|
--5--5--x--3/-6--6--x--3-3-|--3----3--3--3--3--3-1--|--1----1----8---7--3--3--|

--------------------------|--------------------------|
--------------------------|--------------------------|
--------------------------|--------------------------|
--------------------------|--------------------------|
--7--7--7--5/-8--8--8--5/-|--7--7--7--5/-8--8--8--5/-|
--5--5--5--3/-6--6--6--3/-|--5--5--5--3/-6--6--6--3/-|

--------------------------|--------------------------|-------------------------|
--------------------------|--------------------------|-------------------------|
--------------------------|--------------------------|----------5/-8--8--8--8--|
--------------------------|--------------------------|----------5/-8--8--8--8--|
--7--7--7--5/-8--8--8--5/-|--7--7--7--5/-8--8--8--5--|--7----x--3/-6--6--6--6--|
--5--5--5--3/-6--6--6--3/-|--5--5--5--3/-6--6--6--3--|--5----x-----------------|

---------------------------|-------------------------|
---------------------------|-------------------------|
--8/-12--12---------------|----------5/-8--8--8--8--|
--8/-12--12---------------|----------5/-8--8--8--8--|
--6/-10--10---5--4--5/-7--|--7----x--3/-6--6--6--6--|
---------------3--2--3/-5--|--5----x-----------------|

---------------------------|-------------------------|
---------------------------|-------------------------|
--8/-12--12---------------|----------5/-8--8--8--8--|
--8/-12--12---------------|----------5/-8--8--8--8--|
--6/-10--10---5--4--5/-7--|--7----x--3/-6--6--6--6--|
---------------3--2--3/-5--|--5----x-----------------|

---------------------------|-------------------------|
---------------------------|-------------------------|
--8/-12--12---------------|----------5/-8--8--8--8--|
--8/-12--12---------------|----------5/-8--8--8--8--|
--6/-10--10---5--4--5/-7--|--7----x--3/-6--6--6--6--|
---------------3--2--3/-5--|--5----x-----------------|

---------------------------|-------------------------|
---------------------------|-------------------------|
--8/-12--12---------------|----------5/-8--8--8--8--|
--8/-12--12---------------|----------5/-8--8--8--8--|
--6/-10--10---5--4--5/-7--|--7----x--3/-6--6--6--6--|
---------------3--2--3/-5--|--5----x-----------------|

---------------------------|-------------------------|
---------------------------|-------------------------|
--8/-12--12---------------|----------5/-8--8--8--8--|
--8/-12--12---------------|----------5/-8--8--8--8--|
--6/-10--10---5--4--5/-7--|--7----x--3/-6--6--6--6--|
---------------3--2--3/-5--|--5----x-----------------|

---------------------------|-------------------------|
---------------------------|-------------------------|
--8/-12--12---------------|----------5/-8--8--8--8--|
--8/-12--12---------------|----------5/-8--8--8--8--|
--6/-10--10---5--4--5/-7--|--7----x--3/-6--6--6--6--|
---------------3--2--3/-5--|--5----x-----------------|

---------------------------|-------------------------|
---------------------------|-------------------------|
--8/-12--12---------------|----------5/-8--8--8--8--|
--8/-12--12---------------|----------5/-8--8--8--8--|
--6/-10--10---5--4--5/-7--|--7----x--3/-6--6--6--6--|
---------------3--2--3/-5--|--5----x-----------------|

---------------------------|--------------------||
---------------------------|--------------------||
--8/-12--12---------------|--------------------||
--8/-12--12---------------|--------------------||
--6/-10--10---5--4--5/-7--|--7--7--------------||
---------------3--2--3/-5--|--5--5--------------||




Ваше мнение



Капча