Nirvana
Turnaround
----------
Bass Intro
G-----------------------------------|
D-----------------------------------|
A---/7-7-7-7-7-7-7--0-0-0-0-0-0-0---|
E-----------------------------------|

G------------------------------------|
D------------------------------------|
A-5-5-5---3-3-2--0-0-0-0-0-0-0-0-0---|
E------------------------------------|

G------------------|
D------------------|
A-5-5-5------------|
E----------3-2-0---|

G-----------------------------------|
D-----------------------------------|
A-----------------------------------|
E-1-1-1--3-3-3--(5-5-5-5-5-5-5-5)---|




Ваше мнение



Капча