Verse
G---------------------------------
D---------------------------------
A----------1-1-1-1-2-2-2-2--------
E--2-2-2-2-----------------3-3-3-3

Chorus
G-------------------------------------------------------------------------------
D-------------------------------------------------------------------------------
A------------------------------------------------1-1-1-1-1-1-1-1-2-2-2-2-2-2-2-2
E-3----3----3----3-3-3-3-3-3-3-3-2-2-2-2-2-2-2-2--------------------------------

That's basically the whole thing also check out my tab for rancid's
sidekick and look for more to come.

-Masterofbass23-




Ваше мнение



Капча