Nirvana - The Money Will Roll Right In

Intro/Verse
------------
E ------------------------------------
B ------------------------------------
G ------------------------------------
D ------------------------------------
A ------------------------------------
E --0-0-0-0-0-2-3-4-0-0-0-0-0-2-3-4---

Chorus
----------

E ---------------------------------------------------
B ---------------------------------------------------
G ---------------------------------------------------
D --3-------5--------4-4-4-4-3-3-3-3-----------------
A --3-------5--------4-4-4-4-3-3-3-3-----------------
E --1-------3--------2-2-2-2-1-1-1-1-0-0-0-0-0-2-3-4-




Ваше мнение



Капча