Intro:
E --------------------------
B --------------------------
G --2-2-2-0--2/3\2-0--------
D --------------------------
A --------------------------
E --------------------------
(6 times)
A D
We passed upon the stair, we spoke of was and when
A F
Although I wasn't there, he said I was his friend
C A
Which came as some surprise I spoke into his eyes
C
I thought you died alone, a long long time ago
C F
e:--------------------------|--------------------------|
B:-----------------------1--|--------------------------|
G:--------------0--2--3-----|--------------------------|
D:-----0--2--3--------------|-----------------0--2--3--|
A:--3-----------------------|--------0--1--3-----------|
E:--------------------------|--1--3--------------------|
1 . 2 . 3 . 4 . 1 . 2 . 3 . 4 .
Oh no, not me
C#
We never lost control
C
You're face to face
C#
With The Man Who Sold The World
A C
I laughed and shook his hand, and made my way back home
A F
I searched for farm and land, for years and years I roamed
C A
I gazed a gazley stare at all the millions here
C
1 must have died along, a long long time ago
Who knows? not me
C#
I never lost control
C
You're face to face
C#
With The Man Who Sold The World
Outro:
e -------------------------------------------------------
B -------------------------------------------------------
G -/9-9-9-9-9-9--\2-2-2-0--2/3\2-0--2-2-2-0--2/3\2-0-----
D -------------------------------------------------------
A -------------------------------------------------------
E -------------------------------------------------------
e -------------------------------------------------------
B -------------------------------------------------------
G -/10-10-10-10-10-10-\9-\7-7-7-7-7-7-/9 \2-2-2-0 2/3\2-0
D -------------------------------------------------------
A -------------------------------------------------------
E -------------------------------------------------------
e -------------------------------------------------------
B -------------------------------------------------------
G -/10-10-10-10-10-10-\9-\7-7-7-7-7-7-/9 \2-2-2-0 2/3\2-0
D -------------------------------------------------------
A -------------------------------------------------------
E -------------------------------------------------------




Ваше мнение



Капча