The man who sold the world – Nirvana
A= Downstroke, with Pick
V= Upstroke, with Pick
/= Slide up
= Slide down
1st Guitar:
Intro (with overdrive):
E|---------------------|---------------------|
H|---------------------|---------------------|
G|-2-2-2-0^(0)-2^3^2-0-|-2-2-2-0^(0)-2^3^2-0-| (two
D|---------------------|---------------------| / times)
A|---------------------|---------------------| /
E|---------------------|---------------------|/
E|---------------------|---------------------|---------------------|
H|---------------------|---------------------|---------------------|
G|-2-2-2-0^(0)-2^3^2-0-|-2-2-2-0^(0)-2^3^2-0-|-2(let ring)---------|
D|---------------------|---------------------|---------------------|
A|---------------------|---------------------|---------------------|
E|---------------------|---------------------|---------------------|
Chorus:
E|-----------------|-----------------|-----------------|
H|-----------------|-----------------|-----------------|
G|-----------2-3-5-|-----------------|-----------------|
D|-----2-3-5-------|-----------0-2-3-|---------3-------|
A|-3-5-------------|-----0-1-3-------|-4-----4-----4---|
E|-----------------|-1-3-------------|-----------------|
E|-----------------|-----------------|-----------------|-1---1-1^(1)-1-1---|
H|-----------------|-----------------|-----------------|-2---2-2^(2)-2-2-0-|
G|-----------------|-----------2-3-5-|-----------------|-1---1-1^(1)-1-1-0-|
D|-----------0-2-3-|-----2-3-5-------|-----------0-2-3-|-3---3-3^(3)-3-3---|
A|-----0-1-3-------|-3-5-------------|-----0-1-3-------|-4---4-4^(4)-4-4---|
E|-1-3-------------|-----------------|-1-3-------------|-------------------|
Bridge:
E|---------------------|---------------------|---------------------|
H|-2---2---------------|---------------------|---------------------|
G|-2-----0^(0)-2^3^2-0-|-2-2-2-0^(0)-2^3^2-0-|-2-2-2-0^(0)-2^3^2-0-|
D|---------------------|---------------------|---------------------|
A|---------------------|---------------------|---------------------|
E|---------------------|---------------------|---------------------|
E|---------------------|---------------------|---------------------|----|----|
H|---------------------|---------------------|---------------------|----|----|
G|-2-2-2-0^(0)-2^3^2-0-|-2-2-2-0^(0)-2^3^2-0-|-2-2-2-0^(0)-2^3^2-0-|-2(let ring)
D|---------------------|---------------------|---------------------|----|----|
A|---------------------|---------------------|---------------------|----|----|
E|---------------------|---------------------|---------------------|----|----|
Chorus:
E|-----------------|-----------------|-----------------|
H|-----------------|-----------------|-----------------|
G|-----------2-3-5-|-----------------|-----------------|
D|-----2-3-5-------|-----------0-2-3-|---------3-------|
A|-3-5-------------|-----0-1-3-------|-4-----4-----4---|
E|-----------------|-1-3-------------|-----------------|
E|-----------------|-----------------|-----------------|-1---1-1^(1)-1-1---|
H|-----------------|-----------------|-----------------|-2---2-2^(2)-2-2-0-|
G|-----------------|-----------2-3-5-|-----------------|-1---1-1^(1)-1-1-0-|
D|-----------0-2-3-|-----2-3-5-------|-----------0-2-3-|-3---3-3^(3)-3-3---|
A|-----0-1-3-------|-3-5-------------|-----0-1-3-------|-4---4-4^(4)-4-4---|
E|-1-3-------------|-----------------|-1-3-------------|-------------------|
Bridge:
E|---------------------|---------------------|---------------------|-----------------|
H|-2---2---------------|---------------------|---------------------|-----------------|
G|-2-----0^(0)-2^3^2-0-|-2-2-2-0^(0)-2^3^2-0-|-2-2-2-0^(0)-2^3^2-0-|-2-2-2-0-0-0-2---|
D|---------------------|---------------------|---------------------|-----------------|
A|---------------------|---------------------|---------------------|-----------------|
E|---------------------|---------------------|---------------------|-----------------|
Chorus:
E|-----------------|-----------------|-----------------|
H|-----------------|-----------------|-----------------|
G|-----------2-3-5-|-----------------|-----------------|
D|-----2-3-5-------|-----------0-2-3-|---------3-------|
A|-3-5-------------|-----0-1-3-------|-4-----4-----4---|
E|-----------------|-1-3-------------|-----------------|
E|-----------------|-----------------|-----------------|-1---1-1^(1)-1-1---|
H|-----------------|-----------------|-----------------|-2---2-2^(2)-2-2-0-|
G|-----------------|-----------2-3-5-|-----------------|-1---1-1^(1)-1-1-0-|
D|-----------0-2-3-|-----2-3-5-------|-----------0-2-3-|-3---3-3^(3)-3-3---|
A|-----0-1-3-------|-3-5-------------|-----0-1-3-------|-4---4-4^(4)-4-4---|
E|-1-3-------------|-----------------|-1-3-------------|-------------------|
Solo & End:
E|---------------------|---------------------|---------------------|
H|-2---2---------------|---------------------|---------------------|
G|-2---2-0^(0)-2^3^2-0-|-2-2-2-0^(0)-2^3^2-0-|-2-2-2-0^(0)-2^3^2-0-|
D|---------------------|---------------------|---------------------|
A|---------------------|---------------------|---------------------|
E|---------------------|---------------------|---------------------|
E|---------------------|---------------------|---------------------|
H|---------------------|---------------------|---------------------|
G|-2-2-2-0^(0)-2^3^2-0-|-2-2-2-0^(0)-2^3^2-0-|-2-2-2-0^(0)-2^3^2-0-|
D|---------------------|---------------------|---------------------|
A|---------------------|---------------------|---------------------|
E|---------------------|---------------------|---------------------|
E|---------------------|---------------------|---------------------|
H|---------------------|---------------------|---------------------|
G|-2-2-2-0^(0)-2^3^2-0-|-2-2-2-0^(0)-(2)-2///|/8///10^^^(10)9---|
D|---------------------|---------------------|---------------------|
A|---------------------|---------------------|---------------------|
E|---------------------|---------------------|---------------------|
E|---------------------|-----------------|-------------------------|
H|---------------------|-----------------|-------------------------|
A|-2-2-2-0^(0)-2^3^2-0-|-2-2-2-0-0-2-2///|/10---10-10^(10)-10-10---|
D|---------------------|-----------------|-------------------------|
A|---------------------|-----------------|-------------------------|
E|---------------------|-----------------|-------------------------|
E|-------------------------|-------------------|-------------------|
H|-------------------------|-------------------|-------------------|
G|-10---10-10^(10)-10-109-|-97-7^(7)-7-7---|-7---7-7^(7)-7-7---|
D|-------------------------|-------------------|-------------------|
A|-------------------------|-------------------|-------------------|
E|-------------------------|-------------------|-------------------|
E|-------------------|-------------------|---------------------|
H|-------------------|-------------------|---------------------|
G|-7/9-9-9^(9)-9-9-9-|-9---9-9^(9)-9-9|2-2-2-0^(0)-2^3^2-0-|
D|-------------------|-------------------|---------------------|
A|-------------------|-------------------|---------------------|
E|-------------------|-------------------|---------------------|
E|-----------------|-------------------------|-------------------------|
H|-----------------|-------------------------|-------------------------|
G|-2-2-2-0-0-2-2///|/10---10-10^(10)-10-10---|-10---10-10^(10)-10-109-|
D|-----------------|-------------------------|-------------------------|
A|-----------------|-------------------------|-------------------------|
E|-----------------|-------------------------|-------------------------|
E|-------------------|-------------------|-------------------|
H|-------------------|-------------------|-------------------|
G|-97-7^(7)-7-7---|-7---7-7^(7)-7-7/9-|-9---9-9^(9)-9-9-9-|
D|-------------------|-------------------|-------------------|
A|-------------------|-------------------|-------------------|
E|-------------------|-------------------|-------------------|
E|-------------------|---------------------|---------------------|----|
H|-------------------|---------------------|---------------------|----|
G|-9---9-9^(9)-9-9|2-2-2-0^(0)-2^3^2-0-|-2-2-2-0^(0)-2^3^2-0-|-2(let ring)
D|-------------------|---------------------|---------------------|----|
A|-------------------|---------------------|---------------------|----|
E|-------------------|---------------------|---------------------|----|
2nd Guitar:
Intro:
| | | | | F | | | |
E|----|----|----|----|-1---X-1^1-1-1-1-|-1---X-1^1-1-1-1-|-1 --|
H|----|----|----|----|-1---X-1^1-1-1-1-|-1---X-1^1-1-1-1-|-3(let --|
G|----|----|----|----|-2---X-2^2-2-2-2-|-1---X-1^1-1-1-1-|-2ring)--|
D|----|----|----|----|-3---X-3^3-3-3-3-|-1---X-1^1-1-1-1-|-0 --|
A|----|----|----|----|-3---X-3^3-3-3-3-|-1---X-1^1-1-1-1-|----|----|
E|----|----|----|----|-1---X-1^1-1-1-1-|-1---X-1^1-1-1-1-|----|----|
| | | | | A A V V A V | A A V V A V | A | |
Verse:
| A | | dm | |
E|-0---X-0^0-0-0-0-|-0---X-0^0-0-0-0-|-1-1-X-1^1-1-1-1-|-1-1-X-1^1-1-1-1-|
H|-2---X-2^2-2-2-2-|-2---X-2^2-2-2-2-|-3-3-X-3^3-3-3-3-|-3-3-X-3^3-3-3-3-|
G|-2---X-2^2-2-2-2-|-2---X-2^2-2-2-2-|-2-2-X-2^2-2-2-2-|-2-2-X-2^2-2-2-2-|
D|-2---X-2^2-2-2-2-|-2---X-2^2-2-2-2-|-0-0-X-0^0-0-0-0-|-0-0-X-0^0-0-0-0-|
A|-0---X-0^0-0-0-0-|-0---X-0^0-0-0-0-|-----------------|-----------------|
E|-----------------|-----------------|-----------------|-----------------|
| A A V V A V | A A V V A V | A V A V V A V | A V A V V A V |
| A | | F | |
E|-0---X-0^0-0-0-0-|-0-0-X-0^0-0-0-0-|-1-1-X-1^1-1-1-1-|-1-1-X-1^1-1-1-1-|
H|-2---X-2^2-2-2-2-|-2-2-X-2^2-2-2-2-|-1-1-X-1^1-1-1-1-|-1-1-X-1^1-1-1-1-|
G|-2---X-2^2-2-2-2-|-2-2-X-2^2-2-2-2-|-2-2-X-2^2-2-2-2-|-2-2-X-2^2-2-2-2-|
D|-2---X-2^2-2-2-2-|-2-2-X-2^2-2-2-2-|-3-3-X-3^3-3-3-3-|-3-3-X-3^3-3-3-3-|
A|-0---X-0^0-0-0-0-|-0-0-X-0^0-0-0-0-|-3-3-X-3-3-3-3-3-|-3-3-X-3-3-3-3-3-|
E|-----------------|-----------------|-1-1-X-1-1-1-1-1-|-1-1-X-1-1-1-1-1-|
| A A V V A V | A V A V V A V | A V A V V A V | A V A V V A V |
2/4
| C | | A | |
E|-0-0-X-0^0-0-0-0-|-0-0-X-0^0-0-0-0-|-0-0-X-0^0-0-0-0-|-0-0-0-0-|
H|-1-1-X-1^1-1-1-1-|-1-1-X-1^1-1-1-1-|-2-2-X-2^2-2-2-2-|-2-2-2-2-|
G|-0-0-X-0^0-0-0-0-|-0-0-X-0^0-0-0-0-|-2-2-X-2^2-2-2-2-|-2-2-2-2-|
D|-2-2-X-2^2-2-2-2-|-2-2-X-2^2-2-2-2-|-2-2-X-2^2-2-2-2-|-2-2-2-2-|
A|-3-3-X-3^3-3-3-3-|-3-3-X-3^3-3-3-3-|-0-0-X-0^0-0-0-0-|-0-0-0-0-|
E|-----------------|-----------------|-----------------|---------|
| A V A V V A V | A V A V V A V | A V A V V A V | A V A V |
|/4
| dm | | C | |
E|-1---X-1^1-1-1-1-|-1---X-1^1-1-1-1-|-0-0-0-0-0-0-0-0-|-0-0-0-0-0-0-0-0-|
H|-3---X-3^3-3-3-3-|-3---X-3^3-3-3-3-|-1-1-1-1-1-1-1-1-|-1-1-1-1-1-1-1-1-|
G|-2---X-2^2-2-2-2-|-2---X-2^2-2-2-2-|-0-0-0-0-0-0-0-0-|-0-0-0-0-0-0-0-0-|
D|-0---X-0^0-0-0-0-|-0---X-0^0-0-0-0-|-2-2-2-2-2-2-2-2-|-2-2-2-2-2-2-2-2-|
A|-----------------|-----------------|-3-3-3-3-3-3-3-3-|-3-3-3-3-3-3-3-3-|
E|-----------------|-----------------|-----------------|-----------------|
| A A V V A V | A A V V A V | A V A V A V A V | A V A V A V A V |
Chorus:
| C | F | C# | F |
E|-0-0-0-0-0-0-0-0-|-1-1-1-1-1-1-1-1-|-1---X-1^1-1-1-1-|-1-1-1-1-1-1-1-1-|
H|-1-1-1-1-1-1-1-1-|-1-1-1-1-1-1-1-1-|-2---X-2^2-2-2-2-|-1-1-1-1-1-1-1-1-|
G|-0-0-0-0-0-0-0-0-|-2-2-2-2-2-2-2-2-|-1---X-1^1-1-1-1-|-2-2-2-2-2-2-2-2-|
D|-2-2-2-2-2-2-2-2-|-3-3-3-3-3-3-3-3-|-3---X-3^3-3-3-3-|-3-3-3-3-3-3-3-3-|
A|-3-3-3-3-3-3-3-3-|-3-3-3-3-3-3-3-3-|-4---X-4^4-4-4-4-|-3-3-3-3-3-3-3-3-|
E|-----------------|-1-1-1-1-1-1-1-1-|-1---X-1^1-1-1-1-|-1-1-1-1-1-1-1-1-|
| A V A V A V A V | A V A V A V A V | A A V A V A V | A V A V A V A V |
| C | F | C# |
E|-0-0-0-0-0-0-0-0-|-1-1-1-1-1-1-1-1-|-1---X-1^1-1-1-1-|
H|-1-1-1-1-1-1-1-1-|-1-1-1-1-1-1-1-1-|-2---X-2^2-2-2-2-|
G|-0-0-0-0-0-0-0-0-|-2-2-2-2-2-2-2-2-|-1---X-1^1-1-1-1-|
D|-2-2-2-2-2-2-2-2-|-3-3-3-3-3-3-3-3-|-3---X-3^3-3-3-3-|
A|-3-3-3-3-3-3-3-3-|-3-3-3-3-3-3-3-3-|-3---X-3^3-3-3-3-|
E|-0-0-0-0-0-0-0-0-|-1-1-1-1-1-1-1-1-|-1---X-1^1-1-1-1-|
| A V A V A V A V | A V A V A V A V | A A V V A V |
Bridge:
| A | | dm | | F | F | dm | |
E|-0 --|-1 --|-1---X-1^1-1-1-1-|-1---X-1^1-1-1-1-|-1 --|
H|-2(let --|-3(let --|-1---X-1^1-1-1-1-|-1---X-1^1-1-1-1-|-3(let --|
G|-2ring)--|-2ring)--|-2---X-2^2-2-2-2-|-2---X-2^2-2-2-2-|-2ring)--|
D|-2 --|-0 --|-3---X-3^3-3-3-3-|-3---X-3^3-3-3-3-|-0 --|
A|-0 --|----|----|-3---X-3^3-3-3-3-|-3---X-3^3-3-3-3-|----|----|
E|----|----|----|----|-1---X-1^1-1-1-1-|-1---X-1^1-1-1-1-|----|----|
| A | | A | | A A V V A V | A A V V A V | A | |
Verse:
| A | | dm | |
E|-0---X-0^0-0-0-0-|-0---X-0^0-0-0-0-|-1-1-X-1^1-1-1-1-|-1-1-X-1^1-1-1-1-|
H|-2---X-2^2-2-2-2-|-2---X-2^2-2-2-2-|-3-3-X-3^3-3-3-3-|-3-3-X-3^3-3-3-3-|
G|-2---X-2^2-2-2-2-|-2---X-2^2-2-2-2-|-2-2-X-2^2-2-2-2-|-2-2-X-2^2-2-2-2-|
D|-2---X-2^2-2-2-2-|-2---X-2^2-2-2-2-|-0-0-X-0^0-0-0-0-|-0-0-X-0^0-0-0-0-|
A|-0---X-0^0-0-0-0-|-0---X-0^0-0-0-0-|-----------------|-----------------|
E|-----------------|-----------------|-----------------|-----------------|
| A A V V A V | A A V V A V | A V A V V A V | A V A V V A V |
| A | | F | |
E|-0---X-0^0-0-0-0-|-0-0-X-0^0-0-0-0-|-1-1-X-1^1-1-1-1-|-1-1-X-1^1-1-1-1-|
H|-2---X-2^2-2-2-2-|-2-2-X-2^2-2-2-2-|-1-1-X-1^1-1-1-1-|-1-1-X-1^1-1-1-1-|
G|-2---X-2^2-2-2-2-|-2-2-X-2^2-2-2-2-|-2-2-X-2^2-2-2-2-|-2-2-X-2^2-2-2-2-|
D|-2---X-2^2-2-2-2-|-2-2-X-2^2-2-2-2-|-3-3-X-3^3-3-3-3-|-3-3-X-3^3-3-3-3-|
A|-0---X-0^0-0-0-0-|-0-0-X-0^0-0-0-0-|-3-3-X-3-3-3-3-3-|-3-3-X-3-3-3-3-3-|
E|-----------------|-----------------|-1-1-X-1-1-1-1-1-|-1-1-X-1-1-1-1-1-|
| A A V V A V | A V A V V A V | A V A V V A V | A V A V V A V |
2/4
| C | | A | |
E|-0-0-X-0^0-0-0-0-|-0-0-X-0^0-0-0-0-|-0-0-X-0^0-0-0-0-|-0-0-0-0-|
H|-1-1-X-1^1-1-1-1-|-1-1-X-1^1-1-1-1-|-2-2-X-2^2-2-2-2-|-2-2-2-2-|
G|-0-0-X-0^0-0-0-0-|-0-0-X-0^0-0-0-0-|-2-2-X-2^2-2-2-2-|-2-2-2-2-|
D|-2-2-X-2^2-2-2-2-|-2-2-X-2^2-2-2-2-|-2-2-X-2^2-2-2-2-|-2-2-2-2-|
A|-3-3-X-3^3-3-3-3-|-3-3-X-3^3-3-3-3-|-0-0-X-0^0-0-0-0-|-0-0-0-0-|
E|-----------------|-----------------|-----------------|---------|
| A V A V V A V | A V A V V A V | A V A V V A V | A V A V |
|/4
| dm | | C | |
E|-1---X-1^1-1-1-1-|-1---X-1^1-1-1-1-|-0-0-0-0-0-0-0-0-|-0-0-0-0-0-0-0-0-|
H|-3---X-3^3-3-3-3-|-3---X-3^3-3-3-3-|-1-1-1-1-1-1-1-1-|-1-1-1-1-1-1-1-1-|
G|-2---X-2^2-2-2-2-|-2---X-2^2-2-2-2-|-0-0-0-0-0-0-0-0-|-0-0-0-0-0-0-0-0-|
D|-0---X-0^0-0-0-0-|-0---X-0^0-0-0-0-|-2-2-2-2-2-2-2-2-|-2-2-2-2-2-2-2-2-|
A|-----------------|-----------------|-3-3-3-3-3-3-3-3-|-3-3-3-3-3-3-3-3-|
E|-----------------|-----------------|-----------------|-----------------|
| A A V V A V | A A V V A V | A V A V A V A V | A V A V A V A V |
Chorus:
| C | F | C# | F |
E|-0-0-0-0-0-0-0-0-|-1-1-1-1-1-1-1-1-|-1---X-1^1-1-1-1-|-1-1-1-1-1-1-1-1-|
H|-1-1-1-1-1-1-1-1-|-1-1-1-1-1-1-1-1-|-2---X-2^2-2-2-2-|-1-1-1-1-1-1-1-1-|
G|-0-0-0-0-0-0-0-0-|-2-2-2-2-2-2-2-2-|-1---X-1^1-1-1-1-|-2-2-2-2-2-2-2-2-|
D|-2-2-2-2-2-2-2-2-|-3-3-3-3-3-3-3-3-|-3---X-3^3-3-3-3-|-3-3-3-3-3-3-3-3-|
A|-3-3-3-3-3-3-3-3-|-3-3-3-3-3-3-3-3-|-4---X-4^4-4-4-4-|-3-3-3-3-3-3-3-3-|
E|-----------------|-1-1-1-1-1-1-1-1-|-1---X-1^1-1-1-1-|-1-1-1-1-1-1-1-1-|
| A V A V A V A V | A V A V A V A V | A A V A V A V | A V A V A V A V |
| C | F | C# | A | | dm | |
E|-0-0-0-0-0-0-0-0-|-1-1-1-1-1-1-1-1-|-1---X-1^1-1-1-1-|-0 --|-1 --|
H|-1-1-1-1-1-1-1-1-|-1-1-1-1-1-1-1-1-|-2---X-2^2-2-2-2-|-2(let --|-3(let --|
G|-0-0-0-0-0-0-0-0-|-2-2-2-2-2-2-2-2-|-1---X-1^1-1-1-1-|-2ring)--|-2ring)--|
D|-2-2-2-2-2-2-2-2-|-3-3-3-3-3-3-3-3-|-3---X-3^3-3-3-3-|-2 --|-0 --|
A|-3-3-3-3-3-3-3-3-|-3-3-3-3-3-3-3-3-|-3---X-3^3-3-3-3-|-0 --|----|----|
E|-0-0-0-0-0-0-0-0-|-1-1-1-1-1-1-1-1-|-1---X-1^1-1-1-1-|----|----|----|----|
| A V A V A V A V | A V A V A V A V | A A V V A V | A | | A | |
| C | F | C# | F |
E|-0-0-0-0-0-0-0-0-|-1-1-1-1-1-1-1-1-|-1---X-1^1-1-1-1-|-1-1-1-1-1-1-1-1-|
H|-1-1-1-1-1-1-1-1-|-1-1-1-1-1-1-1-1-|-2---X-2^2-2-2-2-|-1-1-1-1-1-1-1-1-|
G|-0-0-0-0-0-0-0-0-|-2-2-2-2-2-2-2-2-|-1---X-1^1-1-1-1-|-2-2-2-2-2-2-2-2-|
D|-2-2-2-2-2-2-2-2-|-3-3-3-3-3-3-3-3-|-3---X-3^3-3-3-3-|-3-3-3-3-3-3-3-3-|
A|-3-3-3-3-3-3-3-3-|-3-3-3-3-3-3-3-3-|-4---X-4^4-4-4-4-|-3-3-3-3-3-3-3-3-|
E|-----------------|-1-1-1-1-1-1-1-1-|-1---X-1^1-1-1-1-|-1-1-1-1-1-1-1-1-|
| A V A V A V A V | A V A V A V A V | A A V A V A V | A V A V A V A V |
| C | F | C# |
E|-0-0-0-0-0-0-0-0-|-1-1-1-1-1-1-1-1-|-1---X-1^1-1-1-1-|
H|-1-1-1-1-1-1-1-1-|-1-1-1-1-1-1-1-1-|-2---X-2^2-2-2-2-|
G|-0-0-0-0-0-0-0-0-|-2-2-2-2-2-2-2-2-|-1---X-1^1-1-1-1-|
D|-2-2-2-2-2-2-2-2-|-3-3-3-3-3-3-3-3-|-3---X-3^3-3-3-3-|
A|-3-3-3-3-3-3-3-3-|-3-3-3-3-3-3-3-3-|-3---X-3^3-3-3-3-|
E|-0-0-0-0-0-0-0-0-|-1-1-1-1-1-1-1-1-|-1---X-1^1-1-1-1-|
| A V A V A V A V | A V A V A V A V | A A V V A V |
Solo & End:
| A | | dm | | F |
E|-0 --|-1 --|-1---X-1^(1)-1-1-1-|-1-1-X-1^(1)-1-1-1-|
H|-2(let --|-3(let --|-1---X-1^(1)-1-1-1-|-1-1-X-1^(1)-1-1-1-|
G|-2ring)--|-2ring)--|-2---X-2^(2)-2-2-2-|-2-2-X-2^(2)-2-2-2-|
D|-2 --|-0 --|-3---X-3^(3)-3-3-3-|-3-3-X-3^(3)-3-3-3-|
A|-0 --|----|----|-3---X-3^(3)-3-3-3-|-3-3-X-3^(3)-3-3-3-|
E|----|----|----|----|-1---X-1^(1)-1-1-1-|-1-1-X-1^(1)-1-1-1-|
| A | | A | | A A V V A V | A V A V V A V |
| dm | | A | |
E|-1-1-X-1^(1)-1-1-1-|-1-1-X-1^(1)-1-1-1-|-0-0-X-0^(0)-0-0-0-|-0-0-X-0^(0)-0-0-0-|
H|-3-3-X-3^(3)-3-3-3-|-3-3-X-3^(3)-3-3-3-|-2-2-X-2^(2)-2-2-2-|-2-2-X-2^(2)-2-2-2-|
G|-2-2-X-2^(2)-2-2-2-|-2-2-X-2^(2)-2-2-2-|-2-2-X-2^(2)-2-2-2-|-2-2-X-2^(2)-2-2-2-|
D|-0-0-X-0^(0)-0-0-0-|-0-0-X-0^(0)-0-0-0-|-2-2-X-2^(2)-2-2-2-|-2-2-X-2^(2)-2-2-2-|
A|-------------------|-------------------|-0-0-X-0^(0)-0-0-0-|-0-0-X-0^(0)-0-0-0-|
E|-------------------|-------------------|-------------------|-------------------|
| A A V V A V | A V A V V A V | A A V V A V | A V A V V A V |
| dm | | F | |
E|-1-1-X-1^(1)-1-1-1-|-1-1-X-1^(1)-1-1-1-|-1-1-X-1^(1)-1-1-1-|-1-1-X-1^(1)-1-1-1-|
H|-3-3-X-3^(3)-3-3-3-|-3-3-X-3^(3)-3-3-3-|-1-1-X-1^(1)-1-1-1-|-1-1-X-1^(1)-1-1-1-|
G|-2-2-X-2^(2)-2-2-2-|-2-2-X-2^(2)-2-2-2-|-2-2-X-2^(2)-2-2-2-|-2-2-X-2^(2)-2-2-2-|
D|-0-0-X-0^(0)-0-0-0-|-0-0-X-0^(0)-0-0-0-|-3-3-X-3^(3)-3-3-3-|-3-3-X-3^(3)-3-3-3-|
A|-------------------|-------------------|-3-3-X-3^(3)-3-3-3-|-3-3-X-3^(3)-3-3-3-|
E|-------------------|-------------------|-1-1-X-1-(1)-1-1-1-|-1-1-X-1-(1)-1-1-1-|
| A A V V A V | A V A V V A V | A A V V A V | A V A V V A V |
| dm | | A | |
E|-1-1-X-1^(1)-1-1-1-|-1-1-X-1^(1)-1-1-1-|-0-0-X-0^(0)-0-0-0-|-0-0-X-0^(0)-0-0-0-|
H|-3-3-X-3^(3)-3-3-3-|-3-3-X-3^(3)-3-3-3-|-2-2-X-2^(2)-2-2-2-|-2-2-X-2^(2)-2-2-2-|
G|-2-2-X-2^(2)-2-2-2-|-2-2-X-2^(2)-2-2-2-|-2-2-X-2^(2)-2-2-2-|-2-2-X-2^(2)-2-2-2-|
D|-0-0-X-0^(0)-0-0-0-|-0-0-X-0^(0)-0-0-0-|-2-2-X-2^(2)-2-2-2-|-2-2-X-2^(2)-2-2-2-|
A|-------------------|-------------------|-0-0-X-0^(0)-0-0-0-|-0-0-X-0^(0)-0-0-0-|
E|-------------------|-------------------|-------------------|-------------------|
| A A V V A V | A V A V V A V | A A V V A V | A V A V V A V |
| dm | | F | |
E|-1-1-X-1^(1)-1-1-1-|-1-1-X-1^(1)-1-1-1-|-1-1-X-1^(1)-1-1-1-|-1-1-X-1^(1)-1-1-1-|
H|-3-3-X-3^(3)-3-3-3-|-3-3-X-3^(3)-3-3-3-|-1-1-X-1^(1)-1-1-1-|-1-1-X-1^(1)-1-1-1-|
G|-2-2-X-2^(2)-2-2-2-|-2-2-X-2^(2)-2-2-2-|-2-2-X-2^(2)-2-2-2-|-2-2-X-2^(2)-2-2-2-|
D|-0-0-X-0^(0)-0-0-0-|-0-0-X-0^(0)-0-0-0-|-3-3-X-3^(3)-3-3-3-|-3-3-X-3^(3)-3-3-3-|
A|-------------------|-------------------|-3-3-X-3^(3)-3-3-3-|-3-3-X-3^(3)-3-3-3-|
E|-------------------|-------------------|-1-1-X-1-(1)-1-1-1-|-1-1-X-1-(1)-1-1-1-|
| A A V V A V | A V A V V A V | A A V V A V | A V A V V A V |
| dm | | A | |
E|-1-1-X-1^(1)-1-1-1-|-1-1-X-1^(1)-1-1-1-|-0-0-X-0^(0)-0-0-0-|-0-0-X-0^(0)-0-0-0-|
H|-3-3-X-3^(3)-3-3-3-|-3-3-X-3^(3)-3-3-3-|-2-2-X-2^(2)-2-2-2-|-2-2-X-2^(2)-2-2-2-|
G|-2-2-X-2^(2)-2-2-2-|-2-2-X-2^(2)-2-2-2-|-2-2-X-2^(2)-2-2-2-|-2-2-X-2^(2)-2-2-2-|
D|-0-0-X-0^(0)-0-0-0-|-0-0-X-0^(0)-0-0-0-|-2-2-X-2^(2)-2-2-2-|-2-2-X-2^(2)-2-2-2-|
A|-------------------|-------------------|-0-0-X-0^(0)-0-0-0-|-0-0-X-0^(0)-0-0-0-|
E|-------------------|-------------------|-------------------|-------------------|
| A A V V A V | A V A V V A V | A A V V A V | A V A V V A V |

| dm | | F |
E|-1-1-X-1^(1)-1-1-1-|-1-1-X-1^(1)-1-1-1-|-1--|
H|-3-3-X-3^(3)-3-3-3-|-3-3-X-3^(3)-3-3-3-|-1--|
G|-2-2-X-2^(2)-2-2-2-|-2-2-X-2^(2)-2-2-2-|-2--| (let
D|-0-0-X-0^(0)-0-0-0-|-0-0-X-0^(0)-0-0-0-|-3--| /ring)
A|-------------------|-------------------|-3--| /
E|-------------------|-------------------|-1--| /
| A A V V A V | A V A V V A V | A |/




Ваше мнение



Капча