G-----------|---0------------------------------|
D-------------|--3--3--3-----------2-|-3--3--3-----3--2--1-|
A-------------3--3--3----|----------3----------|
E----------------------------------|
Verses
G----------------------------------|
D--0--------7----------------------|
A-----------|--------7-----7--7----------------|
E----------|-----0------|--5--5-------------|--5----5--5--4--5--7------|
G----------------------------------------------|
D--------7---------7------5--3----|----7-------------------|
A-5---5---------5-----5-|-5--5--5--5--------7-|-------7----------------|
E---------------------------------|-5-------------5--5--5--|
G---------------------|--------5---------------------------|
D----------------5--4-|-3---3------3--3--3-|--3--3--3----5--3--0-------|
A----------------------------------------------|
E-5----5--5---5--------------------------------|
G----------------------------------------------|
D----------5-----------------------------------|
A-3----3-------3--0--3-|--3---3--3----5--3--0-|----7------------7------|
E---------------------------------|-5-----5------5-----5---|
G----------------------------------------------|
D-------------|----------7--------7-7----------------------|
A----------7--|--5----5-------5-----|--5----5-----------5--5--5--------|
E--5---5---------------------------------------|
Chorus
G----------------2--3--5------2--3--5------2--3--5|
D-------2--3--5----------|-------2--3--5----------|-------2--3--5---------|
A-3--5-------------------|-3--5-------------------|-3--5------------------|
E-------------------------------------------------|
G----------------------------------------------|
D----------------0--2--3-|-------3----------0--2--3--------|
A-------0--1--3----------|-4--4-----4--|-------0--1--3-----------------|
E-1--3---------------------|-1--3--------------------------|
G-----------------2--3--5----------------------|
D--------2--3--5---------------0--2--3-|---------3---------|
A--3--5-------------------|-------0--1--3----------|-4----4-----4------|
E-------------------------|-1--3---------------------------|
G----------------------------------|
D----7------------------|------7---------------|
A----------------------------------|
E----------------------------------|
Who knows...
G--7-------7--7----------2--3--5---------------|
D------7-----------|--------2--3--5---------------0--2--3--|
A----------------0-|--3--5-------------------|-------0--1--3-----------|
E--------------------------------|-1--3--------------------|
G----------------------2--3--5-----------------|
D---------3-------|-------2--3--5---------------0--2--3----|
A-4----4-------4--|-3--5-------------------|-------0--1--3-------------|
E------------------------------|-1--3----------------------|
G-------------------|-----7----|-----7--7------|
D----------3------|-7-----------|----------|--7------------|
A-4-----4-------4------|
E-------------------0--|
G----------------------------------|
D|o--3-----3----------2-|-3-----3-------3--2--1-|-0--0--0--------------|
A|o-----3-----3----3----|----3-----3------------|----------0----0---4--|
E----------------------------------|
G------------------------------------|----------2----------|
D--0--0--0-------0-------|----------2----------------------|
A-----------0-------4--2-|-0--0--0-------0--0--0-|-0--0--0-----0--2--4-|
E----------------------------------------------|
1.2. 3.
G----------------------------------|
D-0--0--0-------------|--0--0--0-------0--2-o||-0--0--0-----------0--2-|
A----------0----0---4---0-------o||----------0--0--0-------|
E----------------------------------|
G------------------|
D---3--------------|
A------------------|
E------------------|




Ваше мнение



Капча