Date: Fri, 5 Jan 1996 19:12:29 -0500 (EST)
Subject: CRD: Territorial Pissings by Nirvana
Transcribed by Matt Snyder [email protected]
Territorial Pissings
by
NIRVANA
Normal tuning
This song sonds really cool if you play slower with an acoustic, and use
full chords. Here it is.
A7 F D
A7 F D
A7 F D
When I was an alien
A7 F D
Cultures weren't opinions
Chorus
A7 F D
Gotta find a way, to find a way, when I'm there
A7 F D
Gotta find a way, a better way, I'd better wait
Repeat once
Verse
A7 F D
Never met a wise man
A7 F D
If so it's a woman
Chorus
Interlude
Strum A7
Verse (On acoustic youd probably have to play chords here)
A7 F D
Just because you're paranoid
A7 F D
Don't mean they're not after you
Chorus
Play 3 more times than chorus up there^
Heres the chords
eadgbe eadgbe
A7 x02020 or x02223 (I always play the first one)
F 133211
D xx0232
Territorial Pissings - Nirvana
--------------------
This is just a three-chord song: A, F#, D, probably played as follows:
A F# D
E --5-----------
B --5---10---7--
G --6---10---7--
D --7---10---7--
A --7---8----5--
E --5-----------
No flames for the lyrics please.
A F# D A F# D
When I was an alien, cultures weren't opinion.
A F# D
Gotta find a way, to find a way, I'd better wait. (x2)
A F# D A F# D
Never met a wise man. If so it's a woman
A F# D
Gotta find a way, to find a way, I'd better wait.
Bridge:
||
E ------------------------------------------------------------------------
B ----------------|--------7----------------------------------------------
G ----------------|---------7---------------------------------------------
D -----7-------7--|------7---7--------------------------------------------
A -----7-------7--|------7----7-------------------------------------------
E -5-5-----5-5-------5-5--------------------------------------------------
Just because you're paranoid...
(The rest is pretty easy)
Trascribed by...
Mr.Scary (Gary Chapman)
---------------------------- NOTE: Stay tuned for
[email protected] my new e-mail address.




Ваше мнение



Капча