Artist - Nirvana
Title - Talk To Me
Tabbed By- Mat : [email protected]
This song was first tabbed by Steve : [email protected], so all credit goes to him,
but I found a couple little mistakes in his, plus I found it hard to read, anyways,
here it is
Intro 1 - Clean
e|-------------------------------------------|
b|-------------------------------------------|
g|-------4-4---5-5-------------3-3-3-3-3-3---|
d|-5-5---4-4---5-5---5---3-3---3-3-3-3-3-3---|
a|-5-5---2-2---3-3---5---3-3---1-1-1-1-1-1---|
E|-3-3---------------3---1-1-----------------|
______________________________________________
Intro 2 - Distorted
e|-------------------------------------------|
b|-------------------------------------------|
g|-------4-4---5-5---------------3-3-3-3-3-3-|
d|-5-5---4-4---5-5---5---3-3-xxx-3-3-3-3-3-3-|
a|-5-5---2-2---3-3---5---3-3-xxx-1-1-1-1-1-1-|
E|-3-3---------------3---1-1-xxx-------------|
______________________________________________
Verse - Clean
e|-------------------------------------------|
b|-------------------------------------------|
g|-------4-4---5-5-------------3-3-3-3-3-3---|
d|-5-5---4-4---5-5---5---3-3---3-3-3-3-3-3---|
a|-5-5---2-2---3-3---5---3-3---1-1-1-1-1-1---|
E|-3-3---------------3---1-1-----------------|
______________________________________________
Bridge 1 - Distorted
e|-------------------------|
b|-------------------------|
g|-3-(x28)-4-4-4-4/5-5-5---|
d|-------------------------|
a|-------------------------|
E|-------------------------|
______________________________________________
Bridge 2 - Distorted
e|-------------------------|
b|-------------------------|
g|-3-(x28)-5-5-5-5/6-6-6---|
d|-------------------------|
a|-------------------------|
E|-------------------------|
______________________________________________
Chorus - Distorted
e|-------------------------------------------|
b|-------------------------------------------|
g|-------4-4---5-5---------------3-3-3-3-3-3-|
d|-5-5---4-4---5-5---5---3-3-xxx-3-3-3-3-3-3-|
a|-5-5---2-2---3-3---5---3-3-xxx-1-1-1-1-1-1-|
E|-3-3---------------3---1-1-xxx-------------|
______________________________________________
Order
Intro 1
Intro 2
Verse x4
Bridge 1
Bridge 2
Chorus x4
Verse x4
Bridge 1
Bridge 2
Chorus x4
Solo (?)
Verse x4
Bridge 1
Bridge 2
Chorus x8
Ther you are, pretty much exatly the same as before, just easier to read.
Thanks to Steve cos I've wanted it for ages.




Ваше мнение



Капча