Nirvana - Suicide Samurai
Drop-D tuning
intro repeat
e:-----------------------------------------------
b:-----------------------------------------------
g:-----------------------------------------------
d:-3-2-0-----------------------------------------
a:-3-2-0-----------------------------------------
e:-3-2-0-----------------------------------------
repeat about 4 times
e:---------------------------------------------
b:---------------------------------------------
g:----------4-4-4-4----------------------------
d:----------4-4-4-4----------------------------
a:---0--1-s-2-2-2-2----------------------------
e:-4-------------------------------------------
then play
e:---------------------------------------------
b:---------------------------------------------
g:----------4-4-4-4----------------------------
d:----------4-4-4-4--3-2-0---------------------
a:---0--1-s-2-2-2-2--3-2-0---------------------
e:-4-----------------3-2-0---------------------
i think thats about it, you figer out the solo you self its not hard


Ваше мнение



Капча