Song: Stay Away
Album: Nevermind
Band: Nirvana
Tabbed By: Michael Johnson ([email protected])
Standard Tuning (E A D G B E)



Intro/Chorus
E-----------------------------
B-----------------------------
G-7-7-7-4-4-4-----5-5-5--
D-7-7-7-4-4-4-3-3-5-5-5--
A-5-5-5-2-2-2-3-3-3-3-3-
E-------------1-1--------

Verse
G-5-5-5-5-(bend)

Bridge
E-2-2-2-2-2-2-2-----------------------------------
B-3-3-3-3-3-3-3-----------------------------------
G-2-2-2-2-2-2-2------------------3-3-3-3(bend)-
D--------------------4-4-4-4-4-4------------------
A--------------------4-4-4-4-4-4------------------
E--------------------2-2-2-2-2-2------------------




Ваше мнение



Капча