Artist: Nirvana
Song: Stain
Album: Incesticide

Drop D

Intro:

e---------|
B---------|
G---------|
D--0---1--|
A--0---1--|
D--0---1--|

Verse:

e-----------------|
B-----------------|
G-----------------|
D--2-2-x-1-1-2-2--|
A--2-2-x-1-1-2-2--|
D--2-2-x-1-1-2-2--|

Chorus:

e---------------------------|
B---------------------------|
G---------------------------|
D--8-x-7-7-0-0-0-0-0-0-0-0--|
A--8-x-7-7-0-0-0-0-0-0-0-0--|
D--8-x-7-7-0-0-0-0-0-0-0-0--|




Ваше мнение



Капча