SOMETHING IN THE WAY by Kurt Cobain
Intro/Verse:
D----------------------|
A----------------------|
F----------------------|
C|---4-----4---4-4-0-----0---0-0---|
G|---4-----4---4-4-0-----0---0-0---|
C|---4-----4---4-4-0---------0-----|
Underneath the bride
the tarp has sprung a leak
And the animals I´ve trapped
have all become my pets
And I´m living off of grass
and the drippings from the ceiling
But it´s okay to eat fish
´cause they haven´t any feelings
Chorus:
e---------------------------|
B--------------3-3----3-3---|
G--------------2-2----2-2---|
B|---4-----4-4----4-4-0----0-0----0-0---|
A|---4-----4-4----4-4-0----0-0----0-0---|
E|---4-----4-4----4-4-0-----------------|
Something in the way
Mmmm...
Something in the way, yeah
Mmmm...
Прислал: Денис, [email protected]
-----------------------------------------------------------
-----------------------------------------------------------
-----------------------------------------------------------
----2---2-------------------2----2-------------------------
-0----0---0----3---3----0-----0---0-----3---3--------------
------------1----1---1----------------1----1--1------------




Ваше мнение



Капча