----------------------------------------------------------------------------
Smells Like Teen Spirit - Nirvana
----------------------------------------------------------------------------
| / slide up
| slide down
| h hammer-on
| p pull-off
| ~ vibrato
| + harmonic
| x Mute note
Tabbed by: fuhq_fuhq
Email: [email protected]
Tuning: Standard E A D G B e
Intro: clean
e|----------xxxx--------0----------xxxx--------0-----------|
B|----------xxxx--3--3--0----------xxxx--------0-----------|
G|----------xxxx--3--3--0----------xxxx--6--6--0-----------|
D|--3--3--3-xxxx--3--3--0--6--6--6-xxxx--6--6--0-----------|
A|--3--3--3-xxxx--1--1--0--6--6--6-xxxx--4--4--0-----------|
E|--1--1--1-xxxx--------0--4--4--4-xxxx--------0-----------|
e|----------xxxx--------0----------xxxx--------0-----------|
B|----------xxxx--3--3--0----------xxxx--------0-----------|
G|----------xxxx--3--3--0----------xxxx--6--6--0-----------|
D|--3--3--3-xxxx--3--3--0--6--6--6-xxxx--6--6--0-----------|
A|--3--3--3-xxxx--1--1--0--6--6--6-xxxx--4--4--0-----------|
E|--1--1--1-xxxx--------0--4--4--4-xxxx--------0-----------|
Distortion
e|----------xxxx--------0----------xxxx--------0-----------|
B|----------xxxx--3--3--0----------xxxx--------0-----------|
G|----------xxxx--3--3--0----------xxxx--6--6--0-----------|
D|--3--3--3-xxxx--3--3--0--6--6--6-xxxx--6--6--0-----------|
A|--3--3--3-xxxx--1--1--0--6--6--6-xxxx--4--4--0-----------|
E|--1--1--1-xxxx--------0--4--4--4-xxxx--------0-----------|
e|----------xxxx--------0----------xxxx--------0-----------|
B|----------xxxx--3--3--0----------xxxx--------0-----------|
G|----------xxxx--3--3--0----------xxxx--6--6--0-----------|
D|--3--3--3-xxxx--3--3--0--6--6--6-xxxx--6--6--0-----------|
A|--3--3--3-xxxx--1--1--0--6--6--6-xxxx--4--4--0-----------|
E|--1--1--1-xxxx--------0--4--4--4-xxxx--------0-----------|
e|----------xxxx--------0----------xxxx--------0-----------|
B|----------xxxx--3--3--0----------xxxx--------0-----------|
G|----------xxxx--3--3--0----------xxxx--6--6--0-----------|
D|--3--3--3-xxxx--3--3--0--6--6--6-xxxx--6--6--0-----------|
A|--3--3--3-xxxx--1--1--0--6--6--6-xxxx--4--4--0-----------|
E|--1--1--1-xxxx--------0--4--4--4-xxxx--------0-----------|
e|----------xxxx--------0----------xxxx--------0-----------|
B|----------xxxx--3--3--0----------xxxx--------0-----------|
G|----------xxxx--3--3--0----------xxxx--6--6--0-----------|
D|--3--3--3-xxxx--3--3--0--6--6--6-xxxx--6--6--0-----------|
A|--3--3--3-xxxx--1--1--0--6--6--6-xxxx--4--4--0-----------|
E|--1--1--1-xxxx--------0--4--4--4-xxxx--------0-----------|
Verse: X6 Clean SLOW
e|-------------------------------------------------------------------------|
B|---6~----6~----6~----6~----6~----6~----6~----6~----6~----6~----6~-----6~-|
G|--5-----5-----5-----5-----5-----5-----5-----5-----5-----5-----5-----5----|
D|-------------------------------------------------------------------------|
A|-------------------------------------------------------------------------|
E|-------------------------------------------------------------------------|
OR
e|---1~----1~----1~----1~----1~----1~-----1~----1~----1~----1~----1~----1~-|
B|--1-----1-----1-----1-----1-----1------1-----1-----1-----1-----1-----1---|
G|-------------------------------------------------------------------------|
D|-------------------------------------------------------------------------|
A|-------------------------------------------------------------------------|
E|-------------------------------------------------------------------------|
Pre-Chorus: x4 Distortion FAST
e|-----------------------------|
B|----6~-----6~-----6~-----6~--|
G|--5------5------5------5-----|
D|-----------------------------|
A|-----------------------------|
E|-----------------------------|
Chorus: Distortion
e|----------xxxx--------0----------xxxx--------0-----------|
B|----------xxxx--3--3--0----------xxxx--------0-----------|
G|----------xxxx--3--3--0----------xxxx--6--6--0-----------|
D|--3--3--3-xxxx--3--3--0--6--6--6-xxxx--6--6--0-----------|
A|--3--3--3-xxxx--1--1--0--6--6--6-xxxx--4--4--0-----------|
E|--1--1--1-xxxx--------0--4--4--4-xxxx--------0-----------|
e|----------xxxx--------0----------xxxx--------0-----------|
B|----------xxxx--3--3--0----------xxxx--------0-----------|
G|----------xxxx--3--3--0----------xxxx--6--6--0-----------|
D|--3--3--3-xxxx--3--3--0--6--6--6-xxxx--6--6--0-----------|
A|--3--3--3-xxxx--1--1--0--6--6--6-xxxx--4--4--0-----------|
E|--1--1--1-xxxx--------0--4--4--4-xxxx--------0-----------|
e|----------xxxx--------0----------xxxx--------0-----------|
B|----------xxxx--3--3--0----------xxxx--------0-----------|
G|----------xxxx--3--3--0----------xxxx--6--6--0-----------|
D|--3--3--3-xxxx--3--3--0--6--6--6-xxxx--6--6--0-----------|
A|--3--3--3-xxxx--1--1--0--6--6--6-xxxx--4--4--0-----------|
E|--1--1--1-xxxx--------0--4--4--4-xxxx--------0-----------|
e|----------xxxx--------0----------xxxx--------0-----------|
B|----------xxxx--3--3--0----------xxxx--------0-----------|
G|----------xxxx--3--3--0----------xxxx--6--6--0-----------|
D|--3--3--3-xxxx--3--3--0--6--6--6-xxxx--6--6--0-----------|
A|--3--3--3-xxxx--1--1--0--6--6--6-xxxx--4--4--0-----------|
E|--1--1--1-xxxx--------0--4--4--4-xxxx--------0-----------|
e|----------xxxx--------0----------xxxx--------0-----------|
B|----------xxxx--3--3--0----------xxxx--------0-----------|
G|----------xxxx--3--3--0----------xxxx--6--6--0-----------|
D|--3--3--3-xxxx--3--3--0--6--6--6-xxxx--6--6--0-----------|
A|--3--3--3-xxxx--1--1--0--6--6--6-xxxx--4--4--0-----------|
E|--1--1--1-xxxx--------0--4--4--4-xxxx--------0-----------|
e|----------xxxx--------0----------xxxx--------0-----------|
B|----------xxxx--3--3--0----------xxxx--------0-----------|
G|----------xxxx--3--3--0----------xxxx--6--6--0-----------|
D|--3--3--3-xxxx--3--3--0--6--6--6-xxxx--6--6--0-----------|
A|--3--3--3-xxxx--1--1--0--6--6--6-xxxx--4--4--0-----------|
E|--1--1--1-xxxx--------0--4--4--4-xxxx--------0-----------|
Bridge: x2 Distortion
e|-------------------------------------------|
B|-------------------------------------------|
G|-------------------------------------------|
D|--3--3-3-4--3b--3--3-3--8--6---------------|
A|--3--3-3-4------3--3-3--8--6---------------|
E|--1--1-1-2------1--1-1--6--4---------------|
Verse: x6 Clean SLOW
e|-----------------------------------------------------------------------|
B|--6~----6~----6~----6~----6~----6~----6~----6~----6~----6~----6~----6~-|
G|-5-----5-----5-----5-----5-----5-----5-----5-----5-----5-----5-----5---|
D|-----------------------------------------------------------------------|
A|-----------------------------------------------------------------------|
E|-----------------------------------------------------------------------|
OR
e|---1~----1~----1~----1~----1~----1~-----1~----1~----1~----1~----1~----1~-|
B|--1-----1-----1-----1-----1-----1------1-----1-----1-----1-----1-----1---|
G|-------------------------------------------------------------------------|
D|-------------------------------------------------------------------------|
A|-------------------------------------------------------------------------|
E|-------------------------------------------------------------------------|
Pre-Chorus: x4 Distortion FAST
e|-----------------------------|
B|----6~-----6~-----6~-----6~--|
G|--5------5------5------5-----|
D|-----------------------------|
A|-----------------------------|
E|-----------------------------|
Chorus: Distortion
e|----------xxxx--------0----------xxxx--------0-----------|
B|----------xxxx--3--3--0----------xxxx--------0-----------|
G|----------xxxx--3--3--0----------xxxx--6--6--0-----------|
D|--3--3--3-xxxx--3--3--0--6--6--6-xxxx--6--6--0-----------|
A|--3--3--3-xxxx--1--1--0--6--6--6-xxxx--4--4--0-----------|
E|--1--1--1-xxxx--------0--4--4--4-xxxx--------0-----------|
e|----------xxxx--------0----------xxxx--------0-----------|
B|----------xxxx--3--3--0----------xxxx--------0-----------|
G|----------xxxx--3--3--0----------xxxx--6--6--0-----------|
D|--3--3--3-xxxx--3--3--0--6--6--6-xxxx--6--6--0-----------|
A|--3--3--3-xxxx--1--1--0--6--6--6-xxxx--4--4--0-----------|
E|--1--1--1-xxxx--------0--4--4--4-xxxx--------0-----------|
e|----------xxxx--------0----------xxxx--------0-----------|
B|----------xxxx--3--3--0----------xxxx--------0-----------|
G|----------xxxx--3--3--0----------xxxx--6--6--0-----------|
D|--3--3--3-xxxx--3--3--0--6--6--6-xxxx--6--6--0-----------|
A|--3--3--3-xxxx--1--1--0--6--6--6-xxxx--4--4--0-----------|
E|--1--1--1-xxxx--------0--4--4--4-xxxx--------0-----------|
e|----------xxxx--------0----------xxxx--------0-----------|
B|----------xxxx--3--3--0----------xxxx--------0-----------|
G|----------xxxx--3--3--0----------xxxx--6--6--0-----------|
D|--3--3--3-xxxx--3--3--0--6--6--6-xxxx--6--6--0-----------|
A|--3--3--3-xxxx--1--1--0--6--6--6-xxxx--4--4--0-----------|
E|--1--1--1-xxxx--------0--4--4--4-xxxx--------0-----------|
e|----------xxxx--------0----------xxxx--------0-----------|
B|----------xxxx--3--3--0----------xxxx--------0-----------|
G|----------xxxx--3--3--0----------xxxx--6--6--0-----------|
D|--3--3--3-xxxx--3--3--0--6--6--6-xxxx--6--6--0-----------|
A|--3--3--3-xxxx--1--1--0--6--6--6-xxxx--4--4--0-----------|
E|--1--1--1-xxxx--------0--4--4--4-xxxx--------0-----------|
e|----------xxxx--------0----------xxxx--------0-----------|
B|----------xxxx--3--3--0----------xxxx--------0-----------|
G|----------xxxx--3--3--0----------xxxx--6--6--0-----------|
D|--3--3--3-xxxx--3--3--0--6--6--6-xxxx--6--6--0-----------|
A|--3--3--3-xxxx--1--1--0--6--6--6-xxxx--4--4--0-----------|
E|--1--1--1-xxxx--------0--4--4--4-xxxx--------0-----------|

Bridge: x2 Distortion
e|-------------------------------------------|
B|-------------------------------------------|
G|-------------------------------------------|
D|--3--3-3-4--3b--3--3-3--8--6---------------|
A|--3--3-3-4------3--3-3--8--6---------------|
E|--1--1-1-2------1--1-1--6--4---------------|
Solo: Distortion
e|-------------------------------------------|
B|-------------------------------------------|
G|----8-10---8-8b-6-5-6-5--------------------|
D|-10------6--------------8-6-8-8b-6-5-------|
A|-------------------------------------------|
E|-------------------------------------------|
e|-------------------------------------------|
B|-------------------------------------------|
G|----8-10---8-8b-6-5-6-5--------------------|
D|-10------6--------------8-6-8-8b-6-5-------|
A|-------------------------------------------|
E|-------------------------------------------|
Play this x4
e|-------------------------------------------|
B|-------------------------------------------|
G|-------------------------------------------|
D|-6-5-6-5-6-5-6-5-3-------------------------|
A|-------------------------------------------|
E|-------------------------------------------|
(Bass Part)
Pre- Chorus: x4 Distortion FAST
e|-----------------------------|
B|----6~-----6~-----6~-----6~--|
G|--5------5------5------5-----|
D|-----------------------------|
A|-----------------------------|
E|-----------------------------|
Chorus: Distortion
e|----------xxxx--------0----------xxxx--------0-----------|
B|----------xxxx--3--3--0----------xxxx--------0-----------|
G|----------xxxx--3--3--0----------xxxx--6--6--0-----------|
D|--3--3--3-xxxx--3--3--0--6--6--6-xxxx--6--6--0-----------|
A|--3--3--3-xxxx--1--1--0--6--6--6-xxxx--4--4--0-----------|
E|--1--1--1-xxxx--------0--4--4--4-xxxx--------0-----------|
e|----------xxxx--------0----------xxxx--------0-----------|
B|----------xxxx--3--3--0----------xxxx--------0-----------|
G|----------xxxx--3--3--0----------xxxx--6--6--0-----------|
D|--3--3--3-xxxx--3--3--0--6--6--6-xxxx--6--6--0-----------|
A|--3--3--3-xxxx--1--1--0--6--6--6-xxxx--4--4--0-----------|
E|--1--1--1-xxxx--------0--4--4--4-xxxx--------0-----------|
e|----------xxxx--------0----------xxxx--------0-----------|
B|----------xxxx--3--3--0----------xxxx--------0-----------|
G|----------xxxx--3--3--0----------xxxx--6--6--0-----------|
D|--3--3--3-xxxx--3--3--0--6--6--6-xxxx--6--6--0-----------|
A|--3--3--3-xxxx--1--1--0--6--6--6-xxxx--4--4--0-----------|
E|--1--1--1-xxxx--------0--4--4--4-xxxx--------0-----------|
e|----------xxxx--------0----------xxxx--------0-----------|
B|----------xxxx--3--3--0----------xxxx--------0-----------|
G|----------xxxx--3--3--0----------xxxx--6--6--0-----------|
D|--3--3--3-xxxx--3--3--0--6--6--6-xxxx--6--6--0-----------|
A|--3--3--3-xxxx--1--1--0--6--6--6-xxxx--4--4--0-----------|
E|--1--1--1-xxxx--------0--4--4--4--xxxx-------0-----------|
e|----------xxxx--------0----------xxxx--------0-----------|
B|----------xxxx--3--3--0----------xxxx--------0-----------|
G|----------xxxx--3--3--0----------xxxx--6--6--0-----------|
D|--3--3--3-xxxx--3--3--0--6--6--6-xxxx--6--6--0-----------|
A|--3--3--3-xxxx--1--1--0--6--6--6-xxxx--4--4--0-----------|
E|--1--1--1-xxxx--------0--4--4--4-xxxx--------0-----------|
e|----------xxxx--------0----------xxxx--------0-----------|
B|----------xxxx--3--3--0----------xxxx--------0-----------|
G|----------xxxx--3--3--0----------xxxx--6--6--0-----------|
D|--3--3--3-xxxx--3--3--0--6--6--6-xxxx--6--6--0-----------|
A|--3--3--3-xxxx--1--1--0--6--6--6-xxxx--4--4--0-----------|
E|--1--1--1-xxxx--------0--4--4--4-xxxx--------0-----------|
End On...
e|--------------|
B|--------------|
G|--------------|
D|--3~~~~~------|
A|--3~~~~~------|
E|--1~~~~~------|
| / slide up
| slide down
| h hammer-on
| p pull-off
| ~ vibrato
| + harmonic
| x Mute note
============================================================================
This tab is 110% Correct.




Ваше мнение



Капча