INTRO & CHORUS
E------------------------------------
B------------------------------------
G--------3 3 3---------6 6 6---------
D-3 3 3--3 3 3--6 6 6--6 6 6---------
A-3 3 3--1 1 1--6 6 6--4 4 4---------
E-1 1 1---------4 4 4----------------

VERSES
E---1---
B-1-----
G-------
D-------
A-------
E-------

BRIDGE
E-------------------------------------------
B-------------------------------------------
G-----------4b------------------------------
D-3 3 3 3 3-----3 3 3 3--8 8 8 8--6 6 6 6---
A-3 3 3 3 3-----3 3 3 3--8 8 8 8--6 6 6 6---
E-1 1 1 1 1-----1 1 1 1--6 6 6 6--4 4 4 4---

SOLO
E--------------------------------------------------------
B--------------------------------------------------------
G---8-10-8-8b-6-5---------------------------------------- X2
D-10----6--------11-10-8-6-11-11b-6-5-------------------- TIMES
A--------------------------------------------------------
E--------------------------------------------------------

E-------------------------
B-------------------------
G------------------------- X4
D-6-5-6-5-6-5-6s3--------- TIMES
A-------------------------
E-------------------------




Ваше мнение



Капча